Song name
# A B C D E F G H I J K L M N O P Q R S T U V W X Y Z

The Atlantics - Reef Break tab

The Atlantics
"Reef Break"
Tabbed by DjChrispy
DjChrispy@gmail.com

-This took a half of a day out of my life to tab out so I sure hope you enjoy it!

Intro                          part 1
e--------5------------12------|--------------------------------------------------|
b--1~------5~---1---------10~-|-----10---12---13---10~-----10---12---13---10~----|
g--2~-----------2-------------|---9----9----9----9-------9----9----9----9--------|
d--2~-----------2-------------|--------------------------------------------------|
a-----------------------------|--------------------------------------------------|
E-----------------------------|--------------------------------------------------|
                                                                     Repeat 1
e-------------------------------------------------------------------------------|
b----10---12---13-----12-12-12-12-12---17-17--15-15-13-13-12-12-10~~------------|
g--9----9----9----9-------------------------------------------------------------|
d-------------------------------------------------------------------------------|
a-------------------------------------------------------------------------------|
E-------------------------------------------------------------------------------|
part 2
e-------------------------------------------------------------------------------|
b--10-13-10-13/15-10-10---10-13-15-17-15-13-10-10-------------------12----------|
g--------------------------------------------------9-12-12/14----14-----14------|
d-------------------------------------------------------------------------------|
a-------------------------------------------------------------------------------|
E-------------------------------------------------------------------------------|

e-------------------------------------------------------------------------------|
b--12-13-12-13-12-13-12-13-12-----------17--22--20--18-17-17--15-10-10----------|
g-----------------------------12--14-14-----------------------------------------|
d-------------------------------------------------------------------------------|
a-------------------------------------------------------------------------------|
E-------------------------------------------------------------------------------|

e----------------------------------------------------------------------------------------------|
b-10-13-15-17--15-13--10-10----------------12-------12-----12----13-----13-12------13----------|
g----------------------------9-9/12-12/14-----13------13-----13----14--------13------14--14~~--|
d------------------------------------------------14-----14-----------15--------14------14------|
a----------------------------------------------------------------------------------------------|
E----------------------------------------------------------------------------------------------|

e-----------------------------------------------------------------------------------|
b-----------------1~----------------1~------------------------------------------1~--|
g-----------------2~----------------2~------------------------------------------2~--|
d-----------------2~----------------2~------------------------------------------2~--|
a-----------------------------------------------------------------------------------| X2
E--0-5-0-7-0-8-0-5~~-0-5-0-7-0-8-0-5~-0-5-0-7-0-8-0-77777-12-12-10-10-8-8-7-7-5-----|

e-------------------------------------------------------------------------------------------|
b-------------------------------------------------------------------------------------------|
g-------------------------------------------------------------------------------------------|
d-------------------------------------------------------------------------------------------|
a-------------------------------------------------------------------------------------------|
E-5-8-5-10-5-5--5-12-10-8-55-0-3-5-5-8-5-78787878787878-7-3/5-5/12-12/17-17-15-15-13-13-12--|

e-------------------------------------------------------------------------------|
b-------------------------------------------------------------------------------|
g-------------------------------------------------------------------------------|
d-------------------------------------------------------------------------------|
a-------------------------------------------------------------------------------|
E--10\5-5-5-5/12-10-8-5-5-0-3-5--7-4-0-7-4-0-7-4-8-5-0-8-7-5-4-8-5-0-5-5///////-| let ring

SOLO!
e------------------------------------------------------------|--------------|-----|
b--10--12-12-12-10------------6-5---5--8-5----5-5---5--------|--10-10-------|-----|
g-9--9-------------9--5~~-5-7-----7---------7-----7---7-5----|---8--8-8/9---|X3---|
d---------------------------------------------------------5-5|--------------|-----|
a------------------------------------------------------------|--------------|-----|
E------------------------------------------------------------|--------------|-----|
                                                                  use that stinky pinky!
e----------------------------------------------12-12-12-------12--------15-----15-------|
b--10-10-10-10-8-9-10-10-10-10-10-10-8-9-10-------------13-------13-------13-----13-----|
g----------------------------------------------------------14-------14------14-----14---|
d---------------------------------------------------------------------------------------|
a---------------------------------------------------------------------------------------|
E---------------------------------------------------------------------------------------|

e--15p12----15p12----15p12----15p12------------------------------------------------|
b--------12-------12-------12------12--crazy penatonics!------13----/15------------|
g----------------------------------------w-----------!!----14----14----14-14--14---|
d------------------------------------------e-------e-------------------------------|
a--------------------------------------------e---e---------------------------------|
E----------------------------------------------e-----------------------------------|

---------------------------|
13-15-17-15-13-------------|
----------------14-9-12-14-|
---------------------------|
---------------------------|
---------------------------|

e--------------------------------------------------------------------------------------------|
b-----13----1213121312131213121312--------17--22--20--18-17-17--15-10-10---------------------|
g--14----14------------------------12-14-----------------------------------------------------|
d--------------------------------------------------------------------------------------------|
a--------------------------------------------------------------------------------------------|
E--------------------------------------------------------------------------------------------|

e----------------------------------------------------------------------------------------------|
b-10-13-15-17--15-13--10-10----------------12-------12-----12----13-----13-12------13----------|
g----------------------------9-9/12-12/14-----13------13-----13----14--------13------14--14~~--|
d------------------------------------------------14-----14-----------15--------14------14------|
a----------------------------------------------------------------------------------------------|
E----------------------------------------------------------------------------------------------|

e-------------------|-----------------------------------------------------------|
b----10---12---13---|--------12-12-12-12-12---17-17--15-15-13-13-12-12-10~~-----|
g--9----9----9----9-|-----------------------------------------------------------|
d-------------------|-----------------------------------------------------------|
a-------------------|X3---------------------------------------------------------|Both Measures
E-------------------|-----------------------------------------------------------| X3

e-------------------|-----------------------------------------------------------------------------|
b----10---12---13---|--------12-12-12-12-12---17-17--15-15-13-13-12-12-10-----5-5--7--7--2-2-2-2--|
g--9----9----9----9-|---------------------------------------------------------5-5--7--7--2-2-2-2--|
d-------------------|---------------------------------------------------------5-5--7--7--2-2-2-2--|
a-------------------|X3---------------------------------------------------------------------------|
E-------------------|-----------------------------------------------------------------------------|

God, I love that song!
Tap to rate this tab
 
# A B C D E F G H I J K L M N O P Q R S T U V W X Y Z