Guitaretab - guitar tabs
Song name
# A B C D E F G H I J K L M N O P Q R S T U V W X Y Z

The Audition - Warm Me Up tab

Song: Warm Me Up
Artist: The Audition
Album: Champion

Tabbed by: Gary the Hann
Email: Ckyfan1@hotmail.com

Tuning: E tuned down half a step

This song is pretty cool. Itís the first song Iíve heard off the bands upcoming album 
Champion' so it looks promising. I tried my best on the solo and Iím sure itís 98% nailed 
if you spot any corrections please let me know. Cheers :D

Cheers ShrimpthePimp for correcting the main chords (Y)


Intro
eb|-----------|
Bb|--------------|
Gb|--------------|
Db|--7--7--3--2--|
Ab|--7--7--3--2--|
Eb|--5--5--1--0--|


Verse
eb|--5---------4---------5---------4---------|
Bb|--5---------5---------5---------5---------|
Gb|--5--[x16]--4--[x16]--5--[x16]--4--[x16]--|
Db|--7---------6---------7---------6---------|
Ab|--7---------7---------8---------5---------|
Eb|--5---------------------------------------|

Verse Guitar II
eb|-----------------7-----|
Bb|--10---10---10-----10--|
Gb|-----9----9----9-------|
Db|-----------------------|
Ab|-----------------------|
Eb|-----------------------|

Verse Pt II
eb|--------5----------4----------5----------4--|
Bb|--------5----------5----------5----------5--|
Gb|--------5--------4----------5----------4----|
Db|------7--------6----------7----------6------|
Ab|----7--------7----------8----------5--------|
Eb|--5-----------------------------------------|

Verse Pt II
eb|--------5----------4-----------|
Bb|--------5----------5-----------|
Gb|--------5--------4------555-4--|
Db|------7--------6--------777-6--|
Ab|----7--------7----------888-5--|
Eb|--5----------------------------|


Chorus
eb|--5---------4---------5---------------------|
Bb|--5---------5---------5---------------------|
Gb|--5--[x16]--4--[x16]--5--[x16]--------------|
Db|--7---------6---------7---------7--7--3--2--|
Ab|--7---------7---------8---------7--7--3--2--|
Eb|--5-----------------------------5--5--1--0--|

eb|--5---------4---------5---------------------0~--|
Bb|--5---------5---------5---------------------0~--|
Gb|--5--[x16]--4--[x16]--5--[x16]--------------5~--|
Db|--7---------6---------7---------7-x-5/7-3-2-0~--|
Ab|--7---------7---------8---------7-x-5/7-3-2-----|
Eb|--5-----------------------------5-x-3/5-1-0-----|

[ Tab from: http://www.guitaretab.com/t/the-audition/100859.html ]
Solo
eb|-----------------------------------------------------5h8p5---5---------------|
Bb|---------------------------------------------------/-------8-----------------|
Gb|--------------------------5-7-5-7^-7^-7^8^7-5-7-5v-------------7h9p7h9p7-7^--|
Db|----------5h7-----6^-5-7-----------------------------------------------------|
Ab|------5-7-----5-7------------------------------------------------------------|
Eb|--5-8------------------------------------------------------------------------|

eb|--------------------------------------12h15p12----12h15p12----12h15p12-----|
Bb|-----------------------------------------------15----------15----------15--|
Gb|--7^-7^8^7-5h7p5--------5^-7^9-^9-^9---------------------------------------|
Db|-----------------7--5-7----------------------------------------------------|
Ab|---------------------------------------------------------------------------|
Eb|---------------------------------------------------------------------------|

eb|--12h15p12----15^17ó15^17-15^17-15^17^15-12-15-12~-----------------------|
Bb|-----------15---------------------------------------131313\12-121212\10--|
Gb|-------------------------------------------------------------------------|
Db|----------------------------------------------------101010\9--9-9-9-\7---|
Ab|-------------------------------------------------------------------------|
Eb|-------------------------------------------------------------------------|

eb|---------------------------------------------------------------|
Bb|--101010\8-888\5-55-5h8p5---5----5h8p5---5---------------------|
Gb|--------------------------8---7^-------8---7^8-8^7-5-----------|
Db|--7-7-7-\5-555\2-22----------------------------------7~-\------|
Ab|---------------------------------------------------------\-----|
Eb|----------------------------------------------------------[-]--|
Dip last note using whammy.


Bridge
eb|---------------------------------------------------------|
Bb|--10-10-10-10-12-12/13\12-9--------13131212101088--------|
Gb|-----------------------------[x3]------------------[x2]--|
Db|--7--7--7--7--9--9-/10\9--6--------10109-9-7-7-55--------|
Ab|---------------------------------------------------------|
Eb|---------------------------------------------------------|


Fill
eb|------------------------|
Bb|------------------------|
Gb|--------55-7^9^7-5------|
Db|--55-77------------7-5--|
Ab|------------------------|
Eb|------------------------|


End On
eb|--0~--|
Bb|--0~--|
Gb|--5~--|
Db|--0~--|
Ab|------|
Eb|------|
Related for Warm Me Up tab