Song name
# A B C D E F G H I J K L M N O P Q R S T U V W X Y Z

The Audition - Dont Be So Hard tab

p = pull off
h = hammer on
\ = slide toward top of neck
x = mute
PM= Palm Mute

"Don't Be So Hard"
The Audition


e- -----5p2--2--2--5p2-------5p2---0h2--0h2--0h2-7p5----|
B- --3--------3--3------3--3----------------------------|
G- -0-0----0---0--0----0--------------------------------|  x2
D- ----------------------0--0----0----0----0------------|
A- -----------------------------------------------------|
D- -----------------------------------------------------|


 "Don't be so hard on yourself..."
e- -x--------x-------x--------------|-----x------x----x-------|
B- -8--------3-------5--------------|-----8------3----5-------|
G- -7--x16---2--x8---4--x8-(slowly)-|-----7------2----4-------|
D- -5--------0-------2--------------|-----5------0----2-------|
A- -5--------0-------2--------------|-----5------0----2-------|
D- -5--------0-------2--------------|-----5------0----2-------|
    ^-------------x4------------------------------------------|

 "Hold me, Hold me if I..."
e- -x--------x-------x---------------|-------0---0---0---0---0---0---0---0--|
B- -8--------3-------5---------------|------3-3-3-3-3-3-3-3-3-3-3-3-3-3-3-3-|
G- -7--x16---2--x8---4--x8-(faster)--|-----2---2---2---2---2---2---2---2----|
D- -5--------0-------2---------------|--------------------------------------|
A- -5--------0-------2---------------|--------------------------------------|
D- -5--------0-------2---------------|--------------------------------------|
    ^----------------x4-----------------------------------------------------|


 "Don't think too hard about....."
e- -----------------------------------------------------|
B- -----------------------------------------------------|
G- -----------------------------------------------------|
D- -5--x16---0--x8---2--x8---5--x16---0--x8---5--x8-----|
A- -5--------0-------2-------5--------0-------5---------|
D- -5--------0-------2-------5--------0-------5---------|
   ....................PM......................

 "Do you..."
e- -----------------------------------------------------------------------|
B- -x-x-8-8-x-x-8-8-x-x-8-8-x-x-8-8---3----5------------------------------|
G- -x-x-7-7-x-x-7-7-x-x-7-7-x-x-7-7---2----4------------------------------|
D- -x-x-5-5-x-x-5-5-x-x-5-5-x-x-5-5---0----2------------------------------|
A- -x-x-5-5-x-x-5-5-x-x-5-5-x-x-5-5---0----2------------------------------|
D- -x-x-5-5-x-x-5-5-x-x-5-5-x-x-5-5---0----2------------------------------|


 "I wave my goodbyes..."
e- -----------------------------------------------------------------------|
B- -x-x-8-8-x-x-8-8-x-x-8-8-x-x-8-8--3-----5-5-5-5-5-5-5-5----------------|
G- -x-x-7-7-x-x-7-7-x-x-7-7-x-x-7-7--2-----4-4-4-4-4-4-4-4----------------|
D- -x-x-5-5-x-x-5-5-x-x-5-5-x-x-5-5--0-----2-2-2-2-2-2-2-2----------------|
A- -x-x-5-5-x-x-5-5-x-x-5-5-x-x-5-5--0-----2-2-2-2-2-2-2-2----------------|
D- -x-x-5-5-x-x-5-5-x-x-5-5-x-x-5-5--0-----2-2-2-2-2-2-2-2----------------|

 "Hold me, Hold me if I..."
e- -x--------x-------x--------------------|
B- -8--------3-------5--------------------|
G- -7--x16---2--x8---4--x8-(faster)-------| x4
D- -5--------0-------2--------------------|
A- -5--------0-------2--------------------|
D- -5--------0-------2--------------------|


 "Say you'll never ever...."
e- -x-----|x-x-x-x-x-x-x-x-x-x-x-x-x-x-x-x-x-x-x-x-x-x-x-x-x-x-x-x-x-x-x-x-|
B- -x-----|8-8-x-x-x-x-x-x-3-3-x-x-x-x-x-x-5-5-x-x-x-x-x-x-8-8-x-x-8-8-x-x-|
G- -x-x32-|7-7-x-x-x-x-x-x-2-2-x-x-x-x-x-x-4-4-x-x-x-x-x-x-7-7-x-x-7-7-x-x-|
D- -x-----|5-5-x-x-x-x-x-x-0-0-x-x-x-x-x-x-2-2-x-x-x-x-x-x-5-5-x-x-5-5-x-x-|
A- -x-----|5-5-x-x-x-x-x-x-0-0-x-x-x-x-x-x-2-2-x-x-x-x-x-x-5-5-x-x-5-5-x-x-|
D- -x-----|5-5-x-x-x-x-x-x-0-0-x-x-x-x-x-x-2-2-x-x-x-x-x-x-5-5-x-x-5-5-x-x-|
           ^-------------------------x3------------------------------------|

"Sooooooooooooooooooouuuuul"
e- ---------------------------------------------------------9-9-9-9-------|
B- -6-7-6-7-6-7-6-7-6-7-6-7-9-9-9-9-6-7-6-7-6-7-6-7-6-7-6-7---------------|
G- -----------------------------------------------------------------------|
D- -----------------------------------------------------------------------|
A- -----------------------------------------------------------------------|
D- -----------------------------------------------------------------------|

e- -----------------------------------------------------------------------|
B- -6-7-6-7-6-7-6-7-6-7-6-7-9-9-9-9-6-7-6-7-6-7-6-7-6-7-6-7-7--7--7--5----|
G- ---------------------------------------------------------6--6--6--4----|
D- ---------------------------------------------------------4--4--4--2----|
A- ---------------------------------------------------------4--4--4--2----|
D- -----------------------------------------------------------------------|

  Hold me, Hold me if I...
e- -x------x-----x----|-x------x--x--x--x-|-x------x-----x---------------|
B- -8------3-----5----|-8------3--3--5--5-|-8------3-----5---------------|
G- -7-x16--2-x8--4-x8-|-7-x16--2--2--4--4-|-7-x16--2-x8--4-x8------------|
D- -5------0-----2----|-5------0--0--2--2-|-5------0-----2---------------|
A- -5------0-----2----|-5------0--0--2--2-|-5------0-----2---------------|
D- -5------0-----2----|-5------0--0--2--2-|-5------0-----2---------------|
    ^-----x2-------------------------------------------------------------|

e- -x\-x--x\-x-------------------------|
B- -8\-x--8\-x-------------------------|         I've double checked a
G- -7\-x--7\-x-------------------------|         thousand times for these,
D- -5\-x--5\-x-------------------------|         I believe they are exactly
A- -5\-x--5\-x-------------------------|         correct.
D- -5\-x--5\-x-------------------------|


Tabs by: SKITCH26
If there are any questions on these tabs then just email me
yougottalovethepanda@yahoo.com
Tap to rate this tab
 
# A B C D E F G H I J K L M N O P Q R S T U V W X Y Z