Song name
# A B C D E F G H I J K L M N O P Q R S T U V W X Y Z

The Audition - Hell To Sell tab

Help us improve GuitareTab! Take a short survey!
Artist: The Audition
Song: Hell To Sell
Album: Champion
Tabbed By: Shizawn
Tuning: Dropped Db (eb bb gb db ab Db)

I'm about 96% on this one...hope you enjoy!

Intro/Verse                         *4th time*                             
|-----x-x-x-7-7-x-7-7-11-11-11-11--|----5-5-5-5--------|
|-----x-x-x-7-7-x-7-7-11-11-11-11--|----5-5-5-5--------|
|-----x-x-x-7-7-x-7-7-7--7--7--7---|----7-7-7-7--------|
|----------------------------------|-------------------|
|----------------------------------|-------------------|
|----------------------------------|-------------------|

Pre-Chorus
|-7-7-7~--------7-7-7~----------7-7-7~------------------------|
|-7-7-7~--------7-7-7~----------7-7-7~------------------------|
|-7-7-7~-9-7----7-7-7~-9-7------7-7-7~-9-7---7-9-7------------|
|-----------9~------------9~--------------9~-------9~-7-9-7-9-|
|-------------------------------------------------------------|
|-------------------------------------------------------------|

Chorus
|-----------------------------------------------|
|-----------------------------------------------|
|-----------9-9-9-9---11------------------------|
|---9-9-9-9-9-9-9-9---11-9---9-9-9--------x4----|
|---9-9-9-9-7-7-7-7---9--9---9-9-9--------------|
|---9-9-9-9--------------9---9-9-9--------------|

Post Chorus
|-------7-7-7-7------7-7-7-7-------7-7-7-7---7-7-7-7---7-7-7-7------------|
|-------7-7-7-7------7-7-7-7-------7-7-7-7---7-7-7-7---7-7-7-7------------|
|-------7-7-7-7------7-7-7-7-------7-7-7-7---7-7-7-7---7-7-7-7------------|
|-9-9-9~-------8-8-8~--------7-7-7~-------6-6~------5-5~------------------|
|-------------------------------------------------------------------------|
|-------------------------------------------------------------------------|

Interlude (Played Quietly) *Not Sure but close...sorry*
|--------------------------------------------------------------------------|
|--------------------------------------------------------------------------|
|--9-7-9-7-9-7-9-7-9-7-9-7-9-7-9-7-----------------------------------------|
|----------------------------------9-7-9-7-9-7-9-7-9-7-9-7-9-7-9-7---------|
|--------------------------------------------------------------------------|
|--------------------------------------------------------------------------|

Pre-Chorus
|-7-7-7~--------7-7-7~----------7-7-7~------------------------|
|-7-7-7~--------7-7-7~----------7-7-7~------------------------|
|-7-7-7~-9-7----7-7-7~-9-7------7-7-7~-9-7---7-9-7------------|
|-----------9~------------9~--------------9~-------9~-7-9-7-9-|
|-------------------------------------------------------------|
|-------------------------------------------------------------|

Chorus
|-----------------------------------------------|
|-----------------------------------------------|
|-----------9-9-9-9---11------------------------|
|---9-9-9-9-9-9-9-9---11-9---9-9-9--------x8----|
|---9-9-9-9-7-7-7-7---9--9---9-9-9--------------|
|---9-9-9-9--------------9---9-9-9--------------|

Chorus/Outro (Guitar 2)
|--------------------------------------------------------------|
|--------------------------------------------------------------|
|--------------------------------------------------------------|
|---9-9-7-7-9-9-7-7-9-9-7-9-7-9-7----------------x16-----------|
|--------------------------------------------------------------|
|--------------------------------------------------------------|

 
Related for Hell To Sell tab