Guitaretab - guitar tabs
Song name
# A B C D E F G H I J K L M N O P Q R S T U V W X Y Z

The Audition - The Way That You Move tab

Artist: The Audition
Song: "The Way That You Move"
Album: The Audition
Tabbed By: Shizawn
Tuning: Standard half-step down (eb bb gb db ab Eb)


Once again...another Awesome Audizzle song 98%-100% correct! Enjoy and please Rate!!!


Intro
|-----------------------------------------------|
|-----------------------------------------------|
|-----------------------------------------------|
|--8-8---10-10---3-3---3-3-----------X2---------|
|--8-8---10-10---3-3---3-3----------------------|
|--6-6---8--8----1-1---1-1----------------------|

Verse
|--1-x-4-x-6~--x-1-1-x-1-1----------------------|
|--1-x-4-x-6~--x-1-1-x-1-1----------------------|
|--1-x-4-x-6~--x-1-1-x-1-1----------------------|
|--3-x-6-x-8~--x-3-3-x-3-3-----------X4---------|
|--3-x-6-x-8~--x-3-3-x-3-3----------------------|
|-----------------------------------------------|

Pre-Chorus
|------------------------------------------------------------------|
|--------6~------------1~-----------6~-----------------------------|
|------6~--6~--------1~--1~-------6~--6~----5-5-5-5-5-5-5-5--------|
|----8~------8~----3~------3~---8~------8~--5-5-5-5-5-5-5-5--------|
|--8~------------3~-----------8~------------3-3-3-3-3-3-3-3--------|
|------------------------------------------------------------------|
					(PM . . . . . . . .)

Chorus (One)
|-----------------------------------------------|
|-----------------------------------------------|
|-----------------------------------------------|
|--8-8---10-10---3-3---3-3-----------X2---------|
|--8-8---10-10---3-3---3-3----------------------|
|--6-6---8--8----1-1---1-1----------------------|

Chorus (con't)
|-------------------------------------------------------------|
|-------------------------------------------------------------|
|----------------------8-8-8-8-10-10-10-10--------------------|
|--8-8-8-8-10-10-10-10-8-8-8-8-10-10-10-10--(To-Chorus-One-1x)|
|--8-8-8-8-10-10-10-10-6-6-6-6-8--8--8--8---------------------|
|--6-6-6-6-8--8--8--8-----------------------------------------|

Verse 2
|--1-x-4-x-6~--x-1-1----1-x-4-x-6~--x-1-1------------------------------------|
|--1-x-4-x-6~--x-1-1----1-x-4-x-6~--x-1-1------------------------------------|
|--1-x-4-x-6~--x-1-1----1-x-4-x-6~--x-1-1---8-8-8-8-8-8-8-8-6-6-6-6-6-6-6-6--|
|--3-x-6-x-8~--x-3-3----3-x-6-x-8~--x-3-3---8-8-8-8-8-8-8-8-6-6-6-6-6-6-6-6--|
|--3-x-6-x-8~--x-3-3----3-x-6-x-8~--x-3-3---6-6-6-6-6-6-6-6-4-4-4-4-4-4-4-4--|
|----------------------------------------------------------------------------|
                                        (PM . . . . . . . . . . . . . . . .)

Verse
|--1-x-4-x-6~--x-1-1-x-1-1----------------------|
|--1-x-4-x-6~--x-1-1-x-1-1----------------------|
|--1-x-4-x-6~--x-1-1-x-1-1----------------------|
|--3-x-6-x-8~--x-3-3-x-3-3-----------X1---------|
|--3-x-6-x-8~--x-3-3-x-3-3----------------------|
|-----------------------------------------------|

Pre-Chorus
|------------------------------------------------------------------|
|--------6~------------1~-----------6~-----------------------------|
|------6~--6~--------1~--1~-------6~--6~----5-5-5-5-5-5-5-5--------|
|----8~------8~----3~------3~---8~------8~--5-5-5-5-5-5-5-5--------|
|--8~------------3~-----------8~------------3-3-3-3-3-3-3-3--------|
|------------------------------------------------------------------|
					(PM . . . . . . . .)

Chorus (One)
|-----------------------------------------------|
|-----------------------------------------------|
|-----------------------------------------------|
|--8-8---10-10---3-3---3-3-----------X2---------|
|--8-8---10-10---3-3---3-3----------------------|
|--6-6---8--8----1-1---1-1----------------------|
[ Tab from: http://www.guitaretab.com/t/the-audition/186368.html ]
Chorus (con't)
|-------------------------------------------------------------|
|-------------------------------------------------------------|
|----------------------8-8-8-8-10-10-10-10--------------------|
|--8-8-8-8-10-10-10-10-8-8-8-8-10-10-10-10--(To-Chorus-One-1x)|
|--8-8-8-8-10-10-10-10-6-6-6-6-8--8--8--8---------------------|
|--6-6-6-6-8--8--8--8-----------------------------------------|

Bridge ("I don't think I know what has come, come over me...")
|--------------------------------------------------------------------------|
|--------------------------------------------------------------------------|
|--10---x-10~-10---x-8~/6---8---8~/10----10-10-10-10-10-10-10-10-----------|
|--10---x-10~-10---x-8~/6---8---8~/10----10-10-10-10-10-10-10-10-----------|
|--8----x-8~--8----x-6~/4---6---6~/8-----8--8--8--8--8--8--8--8------------|
|--------------------------------------------------------------------------|

Breakdown
|-------------------------------------------------------|
|-------------------------------------------------------|
|--10x10x10x10x10-10-10-10-10x10x10x10x10/8~------------|
|--10x10x10x10x10-10-10-10-10x10x10x10x10/8~----x2------|
|--8xx8xx8xx8xx8--8--8--8--8xx8xx8xx8xx8-/6~------------|
|-------------------------------------------------------|

Breakdown (con't)
|--------------------------------------------------------------------------|
|--------------------------------------------------------------------------|
|--/6x6x6x6x6-6-6-6/8x8x8x8x8-8-8-8/10x10x10x10x10-10-10-10~---------------|
|--/6x6x6x6x6-6-6-6/8x8x8x8x8-8-8-8/10x10x10x10x10-10-10-10~---------------|
|--/4x4x4x4x4-4-4-4/6x6x6x6x6-6-6-6/8xx8xx8xx8xx8--8--8--8~~---------------|
|--------------------------------------------------------------------------|

Pre-Chorus
|------------------------------------------------------------------|
|--------6~------------1~-----------6~-----------------------------|
|------6~--6~--------1~--1~-------6~--6~----5-5-5-5-5-5-5-5--------|
|----8~------8~----3~------3~---8~------8~--5-5-5-5-5-5-5-5--------|
|--8~------------3~-----------8~------------3-3-3-3-3-3-3-3--------|
|------------------------------------------------------------------|
					(PM . . . . . . . .)

Chorus (One)
|-----------------------------------------------|
|-----------------------------------------------|
|-----------------------------------------------|
|--8-8---10-10---3-3---3-3-----------X2---------|
|--8-8---10-10---3-3---3-3----------------------|
|--6-6---8--8----1-1---1-1----------------------|

Chorus (con't)
|-------------------------------------------------------------|
|-------------------------------------------------------------|
|----------------------8-8-8-8-10-10-10-10--------------------|
|--8-8-8-8-10-10-10-10-8-8-8-8-10-10-10-10--(To-Chorus-One-1x)|
|--8-8-8-8-10-10-10-10-6-6-6-6-8--8--8--8---------------------|
|--6-6-6-6-8--8--8--8-----------------------------------------|

Outro (Chorus)
|------------------------------------------------------|
|------------------------------------------------------|
|------------------------------------------------------|
|--8-8-8-8-10-10-10-10-3-3-3-3-3-3-3-3-------x2--------|
|--8-8-8-8-10-10-10-10-3-3-3-3-3-3-3-3-----------------|
|--6-6-6-6-8--8--8--8--1-1-1-1-1-1-1-1-----------------|

Outro (con't)
|-------------------------------------------------------------|
|-------------------------------------------------------------|
|----------------------8-8-8-8-10-10-10-10--------------------|
|--8-8-8-8-10-10-10-10-8-8-8-8-10-10-10-10--------------------|
|--8-8-8-8-10-10-10-10-6-6-6-6-8--8--8--8---------------------|
|--6-6-6-6-8--8--8--8-----------------------------------------|

Outro (con't)
|---------------------------------------------|
|---------------------------------------------|
|---------------------------------------------|
|--8-8---10-10---3~----------------X2---------|
|--8-8---10-10---3~---------------------------|
|--6-6---8--8----1~---------------------------|


RATE RATE RATE!!! THANKS FOR CHECKIN IT OUT!!
Related for The Way That You Move tab