Song name
# A B C D E F G H I J K L M N O P Q R S T U V W X Y Z

The Audition - Sign Steal Deliver tab

Artist: The Audition
Song: "Sign.Steal.Deliver"
Album: The Audition
Tabbed By: Shizawn
Tuning: Drop D half-step down (eb bb gb db ab Db)


Intro/Verse:
|---------------------------------------------------------------------------|-----|
|---------------------------------------------------------------------------|-----|
|---------------------------------------------------------------------------|-----|
|-----------------------------------------------------------------------(x3)|--9--|
|---------------------------------------------------------------------------|--9--|
|--4-4-4-4-4-4-4-4-4-4-4-4-4-4-4-4-7-7-7-7-7-7-7-7-9-9-9-9-9-9-9-9----------|--9--|

Verse:
|---------------------------------------------------------------------------|
|---------------------------------------------------------------------------|
|---------------------------------------------------------------------------|
|--4-4-4-4-4-4-4-4-4-4-4-4-4-4-4-4-7-7-7-7-7-7-7-7-9-9-9-9-9-9-9-9------(x1)|
|--4-4-4-4-4-4-4-4-4-4-4-4-4-4-4-4-7-7-7-7-7-7-7-7-9-9-9-9-9-9-9-9----------|
|--4-4-4-4-4-4-4-4-4-4-4-4-4-4-4-4-7-7-7-7-7-7-7-7-9-9-9-9-9-9-9-9----------|

Pre-Chorus:
|-------------------------------------------------------------------|
|-------------------------------------------------------------------|
|-----6-4------------6-4------------6-4------------6-4--------------|
|--4------7-6-6-7-4------7-6-6-7-4------7-6-6-7-4------7-6-6-7------|
|--4----------6-7-4----------6-7-4----------6-7-4----------6-7------|
|--4----------6-7-4----------6-7-4----------6-7-4----------6-7------|

Verse:
|---------------------------------------------------------------------------|
|---------------------------------------------------------------------------|
|---------------------------------------------------------------------------|
|--4-4-4-4-4-4-4-4-4-4-4-4-4-4-4-4-7-7-7-7-7-7-7-7-9-9-9-9-9-9-9-9------(x2)|
|--4-4-4-4-4-4-4-4-4-4-4-4-4-4-4-4-7-7-7-7-7-7-7-7-9-9-9-9-9-9-9-9----------|
|--4-4-4-4-4-4-4-4-4-4-4-4-4-4-4-4-7-7-7-7-7-7-7-7-9-9-9-9-9-9-9-9----------|

Pre-Chorus:
|-------------------------------------------------------------------|
|-------------------------------------------------------------------|
|-----6-4------------6-4------------6-4------------6-4--------------|
|--4------7-6-6-7-4------7-6-6-7-4------7-6-6-7-4------7-6-6-7------|
|--4----------6-7-4----------6-7-4----------6-7-4----------6-7------|
|--4----------6-7-4----------6-7-4----------6-7-4----------6-7------|

Chorus:
|---------------------------------------------------------------------------------------|
|---------------------------------------------------------------------------------------|
|---------------------------------------------------------------------------------------|
|--7-7-7-7-7-7-7-7-9-9-9-9-9-9-9-9-11-11-11-11-11-11-11-11-11-11-11-11-11-11-11-11-(x2)-|
|--5-5-5-5-5-5-5-5-7-7-7-7-7-7-7-7-9--9--9--9--9--9--9--9--9--9--9--9--9--9--9--9-------|
|---------------------------------------------------------------------------------------|

Chorus (con't):
|---------------------------------------------------------------------------------|
|---------------------------------------------------------------------------------|
|---------------------------------------------------------------------------------|
|--7-7-7-7-7-7-7-7-9-9-9-9-9-9-9-9-6-6-6-6-6-6-6-6-11-11-11-11-9-9-9-9------------|
|--5-5-5-5-5-5-5-5-7-7-7-7-7-7-7-7-4-4-4-4-4-4-4-4-9--9--9--9--7-7-7-7------------|
|---------------------------------------------------------------------------------|

Chorus (con't):
|--------------------------------------------------------------------------------|
|--------------------------------------------------------------------------------|
|--------------------------------------------------------------------------------|
|--7-7-7-7-7-7-7-7-7-7-7-7-7-7-7-7-9-9-9-9-9-9-9-9-9-9-9-9-9-9-9-9---------------|
|--5-5-5-5-5-5-5-5-5-5-5-5-5-5-5-5-7-7-7-7-7-7-7-7-7-7-7-7-7-7-7-7---------------|
|--------------------------------------------------------------------------------|

Breakdown (Rhythm):
|-------------------------------------------------------------------------|-------------------|
|-------------------------------------------------------------------------|-------------------|
|------------------------------------66-666---66-66---644-444---44-44-----|--6~--4~--(x1)-----|
|--44-444---44-44---44-444---44-44---66-666---66-66---644-444---44-44-(x2)|--6~--4~-----------|
|--44-444---44-44---44-444---44-44---44-444---44-44---422-222---22-22-----|--4~--2~-----------|
|--44-444---44-44---44-444---44-44----------------------------------------|-------------------|

Breakdown (Lead): **Played twice but second time with the octaves**
|--------------------------------------------------------------------------------------------------|
|--------------------------------------------------------------------------------------------------|
|-------------------------------------------------------------------------------------------2-----2|
|4-4-4-4-4-4-4-4-6-6-6-6-6-6-6-6-7-7-7-7-7-7-7-7-9-9-9-9-9-9-9-9-11-9-7-6-7-6-7-6-7-6-4-2-4---2-4--|
|--------------------------------------------------------------------------------------------------|
|--------------------------------------------------------------------------------------------------|


Pre-Chorus:
|-------------------------------------------------------------------|
|-------------------------------------------------------------------|
|-----6-4------------6-4------------6-4------------6-4--------------|
|--4------7-6-6-7-4------7-6-6-7-4------7-6-6-7-4------7-6-6-7------|
|--4----------6-7-4----------6-7-4----------6-7-4----------6-7------|
|--4----------6-7-4----------6-7-4----------6-7-4----------6-7------|

Chorus:
|---------------------------------------------------------------------------------------|
|---------------------------------------------------------------------------------------|
|---------------------------------------------------------------------------------------|
|--7-7-7-7-7-7-7-7-9-9-9-9-9-9-9-9-11-11-11-11-11-11-11-11-11-11-11-11-11-11-11-11-(x2)-|
|--5-5-5-5-5-5-5-5-7-7-7-7-7-7-7-7-9--9--9--9--9--9--9--9--9--9--9--9--9--9--9--9-------|
|---------------------------------------------------------------------------------------|

Chorus (con't):
|---------------------------------------------------------------------------------|
|---------------------------------------------------------------------------------|
|---------------------------------------------------------------------------------|
|--7-7-7-7-7-7-7-7-9-9-9-9-9-9-9-9-6-6-6-6-6-6-6-6-11-11-11-11-9-9-9-9------------|
|--5-5-5-5-5-5-5-5-7-7-7-7-7-7-7-7-4-4-4-4-4-4-4-4-9--9--9--9--7-7-7-7------------|
|---------------------------------------------------------------------------------|


Chorus (con't):
|--------------------------------------------------------------------------------|
|--------------------------------------------------------------------------------|
|--------------------------------------------------------------------------------|
|--7-7-7-7-7-7-7-7-7-7-7-7-7-7-7-7-9-9-9-9-9-9-9-9-9-9-9-9-9-9-9-9---------------|
|--5-5-5-5-5-5-5-5-5-5-5-5-5-5-5-5-7-7-7-7-7-7-7-7-7-7-7-7-7-7-7-7---------------|
|--------------------------------------------------------------------------------|

Outro (Rythym):
|----------------------------------------------------|
|----------------------------------------------------|
|----------------------------------------------------|
|--4-4-4-4-4-4-4-4-6-6-6-6-6-6-6-7-7-------------(x4)|
|--4-4-4-4-4-4-4-4-6-6-6-6-6-6-6-7-7-----------------|
|--4-4-4-4-4-4-4-4-6-6-6-6-6-6-6-7-7-----------------|

Outro (Lead):
|----------------------------------------------------------|--------------------|
|----------------------------------------------------------|--------------------|
|--11-11-11-11-11-11-11-11-13-13-13-13-13-13-13-14-14------|-----6-4------------|
|--x--x--x--x--x--x--x--x--x--x--x--x--x--x--x--x--x--(x4)-|--4------7-6-6-7-4--|
|--9--9--9--9--9--9--9--9--11-11-11-11-11-11-11-12-12------|--4----------6-7-4--|
|----------------------------------------------------------|--4----------6-7-4--|

Tap to rate this tab
 
# A B C D E F G H I J K L M N O P Q R S T U V W X Y Z