Song name
# A B C D E F G H I J K L M N O P Q R S T U V W X Y Z

The Audition - Its Gonna Be Hard When Im Gone tab

This is a really cool acoustic song to play. Ive figured out most of it by just kind of 
to the song. Im not sure if its 100% correct but it sounds pretty close to me. I havent 
the breakdown yet after the second chorus so if you know it or have any 
corrections please let me know!

Also, im not sure what the name of a chord is, kus im a noob, so im calling it chord 1.

Capo on 3!

Chords used:
   E   Chord1   G     C   D
e|------------------------3--------------------------------------------|
B|--------------0-----1---2--------------------------------------------|
G|--------------0-----0---3--------------------------------------------|
D|-2-----0------0-----2------------------------------------------------|
A|-2-----0------2-----3------------------------------------------------|
E|-0-----2------3------------------------------------------------------|

I play the intro by picking but find it easier to sing when i strum the verse. When 
the verse just hammer on E and it will sound as good.

Intro:
e|----------------------------------------------------------------------|
B|-------------0-----------------------0--------------------------------|
G|-------0-------0-----------------0-----0------------------------------|
D|---------2------------0-----------0------0-----0----------------------|
A|-0h2-------2--------0---0-----2----2---------2---2--------------------|
E|-0---0------------2-------2h3--------------3--------------------------|

e|-----------------------------------------------------------------------|
B|-------------0-----------------------0---------------------------------|
G|-------0-------0-----------------0-------------------------------------|
D|---------2------------0-----------0------------------------------------|
A|-0h2-------2--------0---0-----2----2-----------------------------------|
E|-0---0------------2-------2h3------------------------------------------|

E             Chord1     G    E            Chord1     G
I want to know what you know, I want to go where you go

C
Take a trip to the end of time

G                                   D
kiss your lips, grab your hips and fly away

E             Chord1      G
I want to walk in your shoes

E                Chord1   G
So I can see just what I do

C
every time that I see your smile

G                        Palm mute D
Do anything to ease your mind

D
Tonight

C                  E
It's gonna be hard when I'm gone

C                          G                     D
I'll take this time to sit down and write you a song

C                     E
With simple words and melody

C                   G              D
To explain exactly what you mean to me
Oh, Amy

E              Chord1  G      E                Chord1   G
You say it's time for change, I say we just need to rearrange
C
all the plans that we had before
G                               D
no one is walking out that door alone

D
But I know I have to


C                  E
It's gonna be hard when I'm gone

C                          G                     D
I'll take this time to sit down and write you a song

C                     E
With simple words and melody

C                   G              D
To explain exactly what you mean to me
Oh, Amy
Tap to rate this tab
# A B C D E F G H I J K L M N O P Q R S T U V W X Y Z