Song name
# A B C D E F G H I J K L M N O P Q R S T U V W X Y Z

The Audition - You Ruined This tab

 Hey, I woke up this morning singing this song. So, I decided to make a tab for it, 
as I couldn't find one. So, here it goes, forgive me if it's not spot on, but I tried my best.

I tabbed it as Drop D, it could be different but this sounds right to me

I'll section off the parts in the riff so it's a little less confusing

e|-----------|----------|---------------------|
B|-----------|----------|---------------------|
G|-----------|----------|---------------------|
D|-----------|----------|---------------------|
A|--66-6-10--|---66-6/--|--666----------------|
D|-----------|----------|-------10--66--88----|

repeat that as many things as needed then go to the pre-chorus

e|----------------------------------------|
B|----------------------------------------|
G|----------------------------------------|
D|---6---xxxx---10---6---8~---8h10--8h10--|
A|---6---xxxx---10---6---8~---8h10--8h10--|
D|---6---xxxx---10---6---8~---8h10--8h10--|

play that one twice and the third one is a little bit different

e|----------------------------------|
B|----------------------------------|
G|----------------------------------|
D|---6---xxxx---10---1---3~---1~----|
A|---6---xxxx---10---1---3~---1~----|
D|---6---xxxx---10---1---3~---1~----|

then the part right before the chorus

e|-----------------------------|
B|-----------------------------|
G|-----------------------------|
D|--------6666666--------------|
A|--------6666666--------------|
D|--------6666666--------------|
P.M       .......

Gradually you get louder till you are no longer Palm Muting

Chorus

e|-----------------------------------------|
B|-----------------------------------------|
G|-----------------------------------------|
D|----10101010---666666---111111----66-----|
A|----10101010---666666---111111----66-----|
D|----10101010---666666---111111----55-----|

After chorus just repeat the parts above ^

Second chorus is pretty much the same only the last time through it's a little different

Last time through in the chorus is this...

e|------------------------------|
B|------------------------------|
G|------------------------------|
D|---101010--6666--5555--3333---|
A|---101010--6666--5555--3333---|
D|---101010--6666--5555--3333---|

Breakdown part
Lead
e|-------6h8------6h8------6----|
B|------------------------------|
G|----8--------8--------8-------|
D|------------------------------|
A|------------------------------|
D|------------------------------|

Rhythm
e|-----------------------------------|
B|-----------------------------------|
G|-----------------------------------|
D|---6666---10101010---8888---6666---|
A|---6666---10101010---8888---6666---|
D|---6666---10101010---8888---6666---|

so after the breakdown part it goes to the chorus once again it's the same as the second 
above, only you'll have to listen to when each chord is played. after that it goes to 
outro which is the same as the intro.

So, there you have it, I really enjoy this song and I hope this has helped. If you have 
questions or concerns, just comment. Also, Please rate this Tab.
Tap to rate this tab
 
# A B C D E F G H I J K L M N O P Q R S T U V W X Y Z