Song name
# A B C D E F G H I J K L M N O P Q R S T U V W X Y Z

The Audition - Run Away tab

This tab was requested by Thakid415, I hope this helps.

I quite like this song, so I will tab this out as well as I can.
any questions or concerns just leave a comment.

Intro/ verse
e|--00000~---00/---00000--00/---00000----000-xxxx-222-----|
B|--xxxxx~---xx/---xxxxx--xx/---xxxxx----xxx-4444-xxx-----|
G|--99999~---99/---44444--44/---66666----222-2222-222-----|
D|--99999~---99/---44444--44/---66666----222-2222-222-----|
A|--77777~---77/---22222--22/---44444----000-0000-000-----|
E|--------------------------------------------------------|

Pre-Chorus  ( I never thought you'd lie)
e|----0~----0~---000000-------|
B|----x-----x----xxxxxx-------|
G|----9~----4~---222222-------|
D|----9~----4~---222222-------|
A|----7~----2~---000000-------|
E|----------------------------|

Do a crescendo on the last chord

Chorus
e|----0000000------|----000000------|----0000----0000--0000-----|
B|----xxxxxxx------|----xxxxxx------|----XXXX----XXXX--XXXX-----|
G|----9999999------|----444444------|----6666----4444--2222-----|
D|----9999999------|----444444------|----6666----4444--2222-----|
A|----7777777------|----222222------|----4444----2222--0000-----|
E|-----------------|----------------|---------------------------|
 repeat that part twice then at the end of the chorus play
(it's all I've ever known)
e|-----0~----0~----0~------|
B|-----x-----x-----x-------|
G|-----6~----4~----2~------|
D|-----6~----4~----2~------|
A|-----4~----2~----0~------|
E|-------------------------|

Play the verse and chorus again then go into the bridge
e|----0000---0000----------00000-----|
B|----xxxx---xxxx----------xxxxx-----|
G|----6666---4444----------22222-----|   Repeat 4 times
D|----6666---4444---2222---22222-----|
A|----4444---2222---2222---00000-----|
E|------------------0000-------------|

then play...

e|------000000--------|
B|------xxxxxx--------|
G|------444444--------|
D|------444444--------|
A|------222222--------|
E|--------------------|

Then go back to the verse, then play the chorus

then randomly at the very end to finish this song off you play
e|---------------|
B|---------------|
G|---------------|
D|------2~-------|
A|------2~-------|
E|------0~-------|


 Alright that was all I got, Please rate and comment. I'd like to know if you have any 
and whatnot, Thanks. :)
Tap to rate this tab
 
# A B C D E F G H I J K L M N O P Q R S T U V W X Y Z