The Audition - Love With A Motive tab

-------------------------------------------------------------------------------
			     THE AUDITION - Love With A Motive
-------------------------------------------------------------------------------
Tabbed by: thakid415
Email: sfyoungcity415@yahoo.com

Tuning: half step down

This is my first tab so cut me a break if its not 100% spot on. I got it from watching
on a couple of live performances. Please leave a comment if you have any suggestions for
thanks & enjoy folks.
Verse 1
e|--------------------------------------------------------------------------------|
B|--------------------------------------------------------------------------------|
G|--------------------------------------------------------------------------------|
D|-4-4-x-x-x-x-x-6-6-8-8-x-x-x-x-x-3----------------------------------------------|
A|-4-4-x-x-x-x-x-6-6-8-8-x-x-x-x-x-3------X8--------------------------------------|
E|-2-2-x-x-x-x-x-4-4-6-6-x-x-x-x-x-1----------------------------------------------|

Chorus
e|--------------------------------------------------------------------------|
B|--------------------------------------------------------------------------|
G|--------------------------------------------------------------------------|
D|-4-4-4-4-8-8-8-8-6-6-6-6--------------------------------------------------|
A|-4-4-4-4-8-8-8-8-6-6-6-6------X4------------------------------------------|
E|-2-2-2-2-6-6-6-6-4-4-4-4--------------------------------------------------|

Verse 2
e|-----------------------------------------------------------------------------|
B|-----------------------------------------------------------------------------|
G|-----------------------------------------------------------------------------|
D|-4-4-x-x-x-x-x-6-6-8-8-x-x-x-x-x-3-------------------------------------------|
A|-4-4-x-x-x-x-x-6-6-8-8-x-x-x-x-x-3------X8-----------------------------------|
E|-2-2-x-x-x-x-x-4-4-6-6-x-x-x-x-x-1-------------------------------------------|

Chorus
e|--------------------------------------------------------------------------|
B|--------------------------------------------------------------------------|
G|--------------------------------------------------------------------------|
D|-4-4-4-4-8-8-8-8-6-6-6-6--------------------------------------------------|
A|-4-4-4-4-8-8-8-8-6-6-6-6------X4------------------------------------------|
E|-2-2-2-2-6-6-6-6-4-4-4-4--------------------------------------------------|

Bridge
e|-----------------------------------------------------------------------------|
B|-----------------------------------------------------------------------------|
G|-----------------------------------------------------------------------------|
D|-4-4-4-4-6-6-6-6-6/8-8/11-8-9-11---------------------------------------------|
A|-4-4-4-4-6-6-6-6-6/8-8/11-8-9-11------X6-------------------------------------|
E|-2-2-2-2-4-4-4-4-4/6-6/9--6-7-9----------------------------------------------|

Chorus (muted first 2 times)
e|--------------------------------------------------------------------------|
B|--------------------------------------------------------------------------|
G|--------------------------------------------------------------------------|
D|-4-4-4-4-8-8-8-8-6-6-6-6------------4-4-6-6-8~~~~~~~~~~~~~~~~~~~~~~~~~~~~~|
A|-4-4-4-4-8-8-8-8-6-6-6-6------X10---4-4-6-6-8~~~~~~~~~~~~~~~~~~~~~~~~~~~~~|
E|-2-2-2-2-6-6-6-6-4-4-4-4------------2-2-4-4-6~~~~~~~~~~~~~~~~~~~~~~~~~~~~~|

************************************

| /   slide up
| \   slide down
| h   hammer-on
| p   pull-off
| ~   vibrato
| +   harmonic
| x   Mute note
| b   Bend
| pb  Pre-bend
| br  Bend release
| pbr Pre-bend release
| brb Bend release bend

************************************
Tap to rate this tab
 
# A B C D E F G H I J K L M N O P Q R S T U V W X Y Z