Song name
# A B C D E F G H I J K L M N O P Q R S T U V W X Y Z

The Audition - You Gotta Believe tab

You Gotta Believe - The Audition
-------------------------------------------------------------------------------
Tabbed by: Reed Lilley (Reedly)
Email: reedly@gmail.com

Tuning: Eb - Down 1/2 Step

Intro:

e|-----(1)---------|------------------|-------1----------|----------------2--|
B|------2---1h2-1--|-----1-------2----|-------2---1h2-1--|------1-------2-2--|
G|------1---1---1--|---1---1---3---3--|-------1---1---1--|----1---1---3---3--|
D|---3--3---1h3-1--|-3-------4--------|----3--3---1h3-1--|--3-------4-----4--|
A|-1----1---1---1--|------------------|--1----1---1---1--|-------------------|
E|-----------------|------------------|------------------|-------------------|


VERSE:
(These are the just the chords - not the exact strum pattern)

  I tried..   to never..  
   Bbm          Fm       F#
e|--1-------|---1--------2---|
B|--2-------|---1--------2---|
G|--1-------|---1--------3---| (( Repeat 4 times ))
D|--3-------|---3--------4---|
A|--1-------|---3--------4---|
E|----------|---1-------(2)--|


CHORUS:
   Bbm      Ab       F#            Db    Ab      Bbm       
e|--6--6----4--4--|--2--2--2--2----x--x--4--4--|--6---|
B|--6--6----4--4--|--2--2--2--2----6--6--4--4--|--6---|
G|--6--6----5--5--|--3--3--3--3----6--6--5--5--|--6---| (( Repeat Twice ))
D|--8--8----6--6--|--4--4--4--4----6--6--6--6--|--8---|
A|--8--8----6--6--|--4--4--4--4----4--4--6--6--|--8---|
E|--6--6----4--4--|--2--2--2--2----------4--4--|--6---|


VERSE 2:
Same chords as verse 1 for the first half, then switch to
the "Intro" picking for the second half.  


CHORUS: (( Same ))


Bridge:
  I got it.. Let me  go..  Lose Control                 ..Let you know, yeah..   
    F#       F# Ab   Bbm     Bbm Ab  F#                            Db  Ab
e|--1--------1--4-|--6--------6--4-|-------------------------------x---4-----|
B|--1--------1--4-|--6--------6--4-|-------------------------------6---4-----|
G|--3--------3--5-|--6--------6--5-|--(( Repeat through bridge ))--6---5-----|
D|--4--------4--6-|--8--------8--6-|-------------------------------6---6-----|
A|--4--------4--6-|--8--------8--6-|-------------------------------4---6-----|
E|--2--------2--4-|--6--------6--4-|-----------------------------------4-----|


Bridge End:
   I just wanna let you know...
                               F#
e|-----------------------------2---|
B|-----------------------------2---|
G|-----------------------------3---|
D|-----------------------------4---|
A|-----------------------------4---|
E|-----------------------------2---|


Chorus: (( Same ))
Tap to rate this tab
# A B C D E F G H I J K L M N O P Q R S T U V W X Y Z