Song name
# A B C D E F G H I J K L M N O P Q R S T U V W X Y Z

The Audition - Approach The Bench tab

Guitar 1

Intro
eb---------------|
Bb--0-0-0-0-0-0--|
Gb--0-0-0-0-0-0--|
Db--0-0-0-0-0-0--|
Ab---------------|
Db---------------|

eb-----------------------------------------------------|
Bb-----------------------------------------------------|
Gb-------4-7---------4-7----22----2-0-2--4p2p0-4p2p0---|
Db--2--5------2-2--5------0-----0----------------------|
Ab--2---------2-2---------0-----0----------------------|
Db--2---------2-2---------0-----0----------------------| X2
PM  .         . .         .     .

Guitar 2

Intro
eb-----------------------------------------------------|
Bb-----------------------------------------------------|
Gb-----------------------------------------------------|
Db--2---------2-2---------0-----0----------------------|
Ab--2---------2-2---------0-----0----------------------|
Db--2---------2-2---------0-----0----------------------| X2
PM  .         . .         .     .

Both Guitars

Verse
eb------------------------------------------|
Bb------------------------------------------|
Gb------------------------------------------|
Db--2---------2-22---------0---------0-00---|
Ab--2---------2-22---------0---------0-00---|
Db--2---------2-22---------0---------0-00---| X2
PM  .         . ..         .         . ..

eb---------------------------------------|
Bb---------------------------------------|
Gb---------------------------------------|
Db--2-2-2-2-2-2-2222--0-0-0-0-0-0-0000---|
Ab--2-2-2-2-2-2-2222--0-0-0-0-0-0-0000---|
Db--2-2-2-2-2-2-2222--0-0-0-0-0-0-0000---| X2
PM  . . . . . . ....  . . . . . . ....

Guitar 1

Chorus
eb-----------------------------------------------------------------|
Bb-----------------------------------------------------------------|
Gb--1212121212121212--99999999--11111111111111111111111111111111---|
Db---x-x-x-x-x-x-x-x--xxxxxxxx---x-x-x-x-x-x-x-x-x-x-x-x-x-x-x-x---|
Ab--1010101010101010--77777777---9-9-9-9-9-9-9-9-9-9-9-9-9-9-9-9---|
Db-----------------------------------------------------------------|
                                                                          X2
eb-------------------------------------------------------------------------|
Bb-------------------------------------------------------------------------|
Gb--1919191919191919--1616161616161616--14141414141414141414141414141414---|
Db---x-x-x-x-x-x-x-x---x-x-x-x-x-x-x-x---x-x-x-x-x-x-x-x-x-x-x-x-x-x-x-x---|
Ab--1717171717171717--1414141414141414--12121212121212121212121212121212---|
Db-------------------------------------------------------------------------|

Guitar 2

Chorus
eb-----------------------------------------|
Bb-----------------------------------------|
Gb--55555555-------------------------------|
Db--55555555--22222222--0000000000000000---|
Ab--33333333--22222222--0000000000000000---|
Db------------22222222--0000000000000000---| X4

Guitar 1

eb-----------------------------------------------------|
Bb-----------------------------------------------------|
Gb-------4-7---------4-7----22----2-0-2--4p2p0-4p2p0---|
Db--2--5------2-2--5------0-----0----------------------|
Ab--2---------2-2---------0-----0----------------------|
Db--2---------2-2---------0-----0----------------------| X2
PM  .         . .         .     .

Guitar 2

eb----------------------------------------------------------------------|
Bb----------------------------------------------------------------------|
Gb-121212121212121212121212--14141414--11111111111111111111111111111111-|
Db--x-x-x-x-x-x-x-x-x-x-x-x---x-x-x-x---x-x-x-x-x-x-x-x-x-x-x-x-x-x-x-x-|
Ab-101010101010101010101010--12121212---9-9-9-9-9-9-9-9-9-9-9-9-9-9-9-9-|
Db----------------------------------------------------------------------|

eb------------------------------------------|
Bb------------------------------------------|
Gb-121212121212121212121212--14141414--11---|
Db--x-x-x-x-x-x-x-x-x-x-x-x---x-x-x-x---x---|
Ab-101010101010101010101010--12121212---9---|
Db------------------------------------------|

Both Guitars

Verse
eb------------------------------------------|
Bb------------------------------------------|
Gb------------------------------------------|
Db--2---------2-22---------0---------0-00---|
Ab--2---------2-22---------0---------0-00---|
Db--2---------2-22---------0---------0-00---| X2
PM  .         . ..         .         . ..

eb---------------------------------------|
Bb---------------------------------------|
Gb---------------------------------------|
Db--2-2-2-2-2-2-2222--0-0-0-0-0-0-0000---|
Ab--2-2-2-2-2-2-2222--0-0-0-0-0-0-0000---|
Db--2-2-2-2-2-2-2222--0-0-0-0-0-0-0000---| X2
PM  . . . . . . ....  . . . . . . ....

Guitar 1

Chorus
eb-----------------------------------------------------------------|
Bb-----------------------------------------------------------------|
Gb--1212121212121212--99999999--11111111111111111111111111111111---|
Db---x-x-x-x-x-x-x-x--xxxxxxxx---x-x-x-x-x-x-x-x-x-x-x-x-x-x-x-x---|
Ab--1010101010101010--77777777---9-9-9-9-9-9-9-9-9-9-9-9-9-9-9-9---|
Db-----------------------------------------------------------------|
                                                                          X2
eb-------------------------------------------------------------------------|
Bb-------------------------------------------------------------------------|
Gb--1919191919191919--1616161616161616--14141414141414141414141414141414---|
Db---x-x-x-x-x-x-x-x---x-x-x-x-x-x-x-x---x-x-x-x-x-x-x-x-x-x-x-x-x-x-x-x---|
Ab--1717171717171717--1414141414141414--12121212121212121212121212121212---|
Db-------------------------------------------------------------------------|

Guitar 2

Chorus
eb-----------------------------------------|
Bb-----------------------------------------|
Gb--55555555-------------------------------|
Db--55555555--22222222--0000000000000000---|
Ab--33333333--22222222--0000000000000000---|
Db------------22222222--0000000000000000---| X4

Both Guitars

eb--------|
Bb--------|
Gb--5~~~--|
Db--5~~~--|
Ab--3~~~--|
Db--------| 

Bridge
After the Bass, Come in!
eb------------------|
Bb------------------|
Gb--5~~~------------|
Db--5~~~-2~~~-0~~~--|
Ab--3~~~-2~~~-0~~~--|
Db-------2~~~-0~~~--|

eb---------------|
Bb---------------|
Gb--5~~~---------|
Db--5~~~-2~~~-0--|
Ab--3~~~-2~~~-0--|
Db-------2~~~-0--|

Guitar 1

Chorus
eb-----------------------------------------------------------------|
Bb-----------------------------------------------------------------|
Gb--1212121212121212--99999999--11111111111111111111111111111111---|
Db---x-x-x-x-x-x-x-x--xxxxxxxx---x-x-x-x-x-x-x-x-x-x-x-x-x-x-x-x---|
Ab--1010101010101010--77777777---9-9-9-9-9-9-9-9-9-9-9-9-9-9-9-9---|
Db-----------------------------------------------------------------|
                                                                          X2
eb-------------------------------------------------------------------------|
Bb-------------------------------------------------------------------------|
Gb--1919191919191919--1616161616161616--14141414141414141414141414141414---|
Db---x-x-x-x-x-x-x-x---x-x-x-x-x-x-x-x---x-x-x-x-x-x-x-x-x-x-x-x-x-x-x-x---|
Ab--1717171717171717--1414141414141414--12121212121212121212121212121212---|
Db-------------------------------------------------------------------------|

Guitar 2

Chorus
eb-----------------------------------------|
Bb-----------------------------------------|
Gb--55555555-------------------------------|
Db--55555555--22222222--0000000000000000---|
Ab--33333333--22222222--0000000000000000---|
Db------------22222222--0000000000000000---| X4

Guitar 1

Outro
eb-------------------------------------------|
Bb-------------------------------------------|
Gb-------4-7---------4-7---------------------|
Db--2--5------2-2--5------0--0-0-0-0-0-0-0---|
Ab--2---------2-2---------0------------------|
Db--2---------2-2---------0------------------|
PM  .         . .         .

Guitar 2

Outro
eb----------------------------|
Bb----------------------------|
Gb----------------------------|
Db--2---------2-2---------0---|
Ab--2---------2-2---------0---|
Db--2---------2-2---------0---| 
PM  .         . .         .     


ENJOY!




Tap to rate this tab
# A B C D E F G H I J K L M N O P Q R S T U V W X Y Z