Song name
# A B C D E F G H I J K L M N O P Q R S T U V W X Y Z

The Audition - Rep Your Clique tab

Song: Rep Your Clique
Artist: The Audition
Album: Controversy Loves Company

Tabbed by: Gary the Hann
Email: Ckyfan1@hotmail.com

Tuning: Drop Db


I was tired when I tabbed this if the formation exactly perfect don’t sh*t down my throat!

I reckon it might be though :D


Intro Pt I – Guitar I
eb|--0~---------|
Bb|--0~---------|
Gb|--2~--xx-xx--|
Db|--2~--xx-xx--|
Ab|--0~--xx-xx--|
Db|--0~--xx-xx--|

Intro Pt II – Guitar I
eb|-----------------------------------|
Bb|-----------------------------------|
Gb|--22-222-222-2222-77-777-----------|
Db|--22-222-222-2222-77-777--333-000--|
Ab|--00-000-000-0000-55-555--333-000--|
Db|--------------------------333-000--|

Intro Pt II – Guitar II
eb|---------------------------------------|
Bb|---------------------------------------|
Gb|--22222222222222222222222222222222-2~--|
Db|--xxxxxxxxxxxxxxxxxxxxxxxxxxxxxxxx-x~--|
Ab|--00000000000000000000000000000000-0~--|
Db|---------------------------------------|

Verse – Guitar I
eb|------------------------------------------------------------|
Bb|------------------------------------------------------------|
Gb|--2-2-2----------7-7-7-------------2-2-2----------7-7-7-5~--|
Db|--2-2-2-22-55-22-7-7-7-3-----------2-2-2-22-55-22-7-7-7-5~--|
Ab|--0-0-0----------5-5-5-3-33-55-33--0-0-0----------5-5-5-3~--|
Db|-----------------------3------------------------------------|
           .. .. ..         .. .. ..        .. .. ..

Chorus - Guitar I
eb|--------------------------------------------------------------|
Bb|--------------------------------------------------------------|
Gb|--222222222-7777---------[x2]-x-2-xxx-222222222-7777----------|
Db|--222222222-7777-333-000------x-2-xxx-222222222-7777-333-000--|
Ab|--000000000-5555-333-000------x-0-xxx-000000000-5555-333-000--|
Db|-----------------333-000-----------------------------333-000--|

Chorus – Guitar I [Continued]
eb|-----------------------------------------|
Bb|-----------------------------------------|
Gb|--2222222222-7777---------222-222-222-2--|
Db|--2222222222-7777-333-000-222-222-222-2--|
Ab|--0000000000-5555-333-000-000-000-000-0--|
Db|------------------333-000----------------|

Chorus - Guitar II
eb|--------------------------------------------------------------|
Bb|--------------------------------------------------------------|
Gb|--222222222-7777---------[x2]-x-2-xxx-222222222-7777----------|
Db|--xxxxxxxxx-xxxx-333-000------x-x-xxx-xxxxxxxxx-xxxx-333-000--|
Ab|--000000000-5555-333-000------x-0-xxx-000000000-5555-333-000--|
Db|-----------------333-000-----------------------------333-000--|

Extended Chorus - Guitar I
eb|--------------------------------------------------------------|
Bb|--------------------------------------------------------------|
Gb|--222222222-7777---------[x2]-x-2-xxx-222222222-7777----------|
Db|--222222222-7777-333-000------x-2-xxx-222222222-7777-333-000--|
Ab|--000000000-5555-333-000------x-0-xxx-000000000-5555-333-000--|
Db|-----------------333-000-----------------------------333-000--|

Extended Chorus – Guitar I [Continued]
eb|------------------------------------------------------------|
Bb|------------------------------------------------------------|
Gb|--2222222222-7777---------222-222-222-222-222-222-222-xxxx--|
Db|--2222222222-7777-333-000-222-222-222-222-222-222-222-xxxx--|
Ab|--0000000000-5555-333-000-000-000-000-000-000-000-000-xxxx--|
Db|------------------333-000-----------------------------------|

Extended Chorus - Guitar II
eb|--------------------------------------------------------------|
Bb|--------------------------------------------------------------|
Gb|--222222222-7777---------[x2]-x-2-xxx-222222222-7777-9999999--|
Db|--xxxxxxxxx-xxxx-333-000------x-x-xxx-xxxxxxxxx-xxxx-xxxxxxx--|
Ab|--000000000-5555-333-000------x-0-xxx-000000000-5555-7777777--|
Db|-----------------333-000--------------------------------------|

Bridge – Guitar I
eb|------------------------------00000000000000000000000000000000--|
Bb|-------------------3333333333-11111111111111111111111111111111--|
Gb|--2222222222222222-2222222222-22222222222222222222222222222222--|
Db|--3333333333333333-0000000000-22222222222222222222222222222222--|
Ab|--3333333333333333-0000000000-00000000000000000000000000000000--|
Db|--3333333333333333-0000000000-----------------------------------|

Bridge - Guitar II
eb|------------------------------------------------------------------------|
Bb|------------------------------------------------------------------------|
Gb|-2222-4444-5555-7777-7777777777777777-5555555555555555-4444444444444444-|
Db|-xxxx-xxxx-xxxx-xxxx-xxxxxxxxxxxxxxxx-xxxxxxxxxxxxxxxx-xxxxxxxxxxxxxxxx-|
Ab|-0000-2222-3333-5555-5555555555555555-3333333333333333-2222222222222222-|
Db|------------------------------------------------------------------------|
‘Bridge - Guitar II’ comes in near the end of the first ‘Bridge – Guitar I’ and carries 
throughout :D

Outro – Guitar I
eb|-----------------------------------------------------------|
Bb|-----------------------------------------------------------|
Gb|--x-2-xxx-222222222-7777----------2222222222-7777----------|
Db|--x-2-xxx-222222222-7777-333-000--2222222222-7777-333-000--|
Ab|--x-0-xxx-000000000-5555-333-000--0000000000-5555-333-000--|
Db|-------------------------333-000------------------333-000--|

Outro – Guitar I [Continued]
eb|----------------------------------------------------|
Bb|----------------------------------------------------|
Gb|---2222222222-7777----------2222222222-7777---------|
Db|---2222222222-7777-333-000--2222222222-7777-333-0~--|
Ab|---0000000000-5555-333-000--0000000000-5555-333-0~--|
Db|-------------------333-000------------------333-0~--|

Outro – Guitar II
eb|-----------------------------------------------------------|
Bb|-----------------------------------------------------------|
Gb|--x-2-xxx-222222222-7777----------2222222222-7777----------|
Db|--x-x-xxx-xxxxxxxxx-xxxx-333-000--xxxxxxxxxx-xxxx-333-000--|
Ab|--x-0-xxx-000000000-5555-333-000--0000000000-5555-333-000--|
Db|-------------------------333-000------------------333-000--|

Outro – Guitar II [Continued]
eb|----------------------------------------------------|
Bb|----------------------------------------------------|
Gb|---2222222222-7777----------2222222222-7777---------|
Db|---xxxxxxxxxx-xxxx-333-000--xxxxxxxxxx-xxxx-333-0~--|
Ab|---0000000000-5555-333-000--0000000000-5555-333-0~--|
Db|-------------------333-000------------------333-0~--|


Song Formation

Intro – Guitar I - x1
Intro Pt II – Guitar I – x1 & Intro Pt II – Guitar II – x1
Verse – Guitar I – x1
Chorus – Guitar I – x1 & Chorus Guitar II – x1
Verse – Guitar I – x1
Extended Chorus - Guitar I – x1 & Extended Chorus - Guitar II - x1
Bridge – Guitar I – x4 - Bridge - Guitar II – x4
Intro Pt II – Guitar I - x1
Outro Guitar I – x1 & Outro Guitar II – x1
Tap to rate this tab
# A B C D E F G H I J K L M N O P Q R S T U V W X Y Z