Guitaretab - guitar tabs
Song name
# A B C D E F G H I J K L M N O P Q R S T U V W X Y Z

The Audition - Oh How Cliche tab

This is my first tab and i did a pretty crappy job as far as i know.
But its really easy to play but i dont know the tuning or how right this is any 
youll be given full credit for.


e ----------------------------------|
b ----------------------------------|
g ----------------------------------|
d ----------------------------------|
a ---17----16----12----10----9h10 --|
d 00---00----00----00----00---------|
[ Tab from: http://www.guitaretab.com/t/the-audition/81494.html ]
e ----------------------------------|
b ----------------------------------|
g ----------------------------------|
d ----------------------------------|
a ---17----16----12----10----9h10---|
d 00---00----00----00----00---------|

e ----------------------------------|
b ----------------------------------|
g ----------------------------------|
d ----------------------------------|
a ---12----10-----9------10---9p5---|
d 00----00----00-----00-----00------|

e ----------------------------------------|
b ----------------------------------------|
g ----------------------------------------|
d ----------------------------------------|
a ---12---10----9p0---10p0---12p0---10p0- |
d 00---00---00----------------------------|

Repeat. But 2nd Time through end on

a ---12---10----9-|
d 00---00----0----|
Related for Oh How Cliche tab