Song name
# A B C D E F G H I J K L M N O P Q R S T U V W X Y Z

The Audition - Dont Be So Hard Acoustic tab

This song is tuned to Drop D Flat. This was tabbed out for if only 1 person were to play 
song. There are multiple guitars in it though. If you want it tabbed out for a duet let 
know.

Intro:

Eb-------5-------------------5----------------------|
Bb---------7----7------7-------7--------------------|
Gb---7------------7------7----------7---------------|
Db-0---0-----0------0------0------0-----------------|
Ab--------------------------------------------------|
Db--------------------------------------------------|

-------5-------------------5------------------------|
---------7----7------7-------7----------------------|
---7------------7------7----------7-----------------|
-0---0-----0------0------0------0-------------------| x2
----------------------------------------------------|
----------------------------------------------------|

Chords: (The strum pattern is just straight eighth notes)
You play each chord for 1 full measure.
        G    G     D     E
Eb------x-|--x--|--2--|--x--|
Bb------x-|--x--|--3--|--x--|
Gb------7-|--7--|--2--|--4--|
Db------5-|--5--|--0--|--2--|
Ab------5-|--5--|--0--|--2--|
Db------5-|--5--|--0--|--2--|

Solo:
Eb------------------------|--------------------------|
Bb------------------------|--------------------------|
Gb-11-12-11-12-11-12-11-12|-11-12-11-12-14-14-14-14--|
Db------------------------|--------------------------|
Ab------------------------|--------------------------|
Db------------------------|--------------------------|

Eb------------------------|--------------------------|
Bb------------------------|-------------15-15-15-15--|
Gb-11-12-11-12-11-12-11-12|-11-12-11-12--------------|
Db------------------------|--------------------------|
Ab------------------------|--------------------------|
Db------------------------|--------------------------|

Eb------------------------|--------------------------|
Bb------------------------|--------------------------|
Gb-11-12-11-12-11-12-11-12|-11-12-11-12-14-14-14-14--|
Db------------------------|--------------------------|
Ab------------------------|--------------------------|
Db------------------------|--------------------------|

Eb------------------------|----------------|
Bb------------------------|----------------|
Gb-11-12-11-12-11-12-11-12|-11-11-11-9-----|
Db------------------------|----------------|
Ab------------------------|----------------|
Db------------------------|----------------|
Tap to rate this tab
# A B C D E F G H I J K L M N O P Q R S T U V W X Y Z