Song name
# A B C D E F G H I J K L M N O P Q R S T U V W X Y Z

The Aurora Project - Photonic Reunion tab

The Aurora Project - Photonic Reunion

The band's website: http://www.theauroraproject.com/
This song is available as a free download on the site above, when you click on "albums".

Transcribed by travislausch

Guitars in standard tuning: E A D G B E




Synth chords during intro:

Em (x-7-9-9-8-7) D (x-5-7-7-7-5) Bm (x-2-4-4-3-2) C (x-3-5-5-5-3)

The full voicings may or may not be played on the synth pads.
Try playing it with just the G, B and high E strings and mix and match to emulate the synth part.

Bass enters after the intro with:

|------------|------------------|-------------------|-------------------|
|------------|------------------|-------------------|-------------------|
|--3----3----|---0---0-0------0-|--2-2-2-2-2-2-2-2--|--2-2-2-2-2-2-2-2--|
|------------|--------------3---|-------------------|-------------------|


Pre-verse 
Lead guitar
|-------------------------------------------------------------|
|-------------------------------------------------------------|
|--16\--14\--12\--11\--9\--7--7/9---9---7/9-9-9---------------|
|--x----x----x----x----x---x--x-----x---x---x-x---------------|
|--14\--12\--10\--9\---7\--5--5/7---7---5/7-7-7---------------|
|-------------------------------------------------------------|
|
|Rhythm guitar
|-------------------------------------------------------------|
|-------------------------------------------------------------|
|------------4/5-----------4/5-----------4/5------------------|
|--2----2----x---2----2----x---2----2----x---2-2-2-2-3-3-2-2--|
|--2----2----2/3-2----2----2/3-2----2----2/3-2-2-2-2-3-3-2-2--|
|--0--x-0--x-----0--x-0--x-----0--x-0--x-----0-0-0-0-1-1-0-0--|


Verse 1 bass riff

|-------------------------------------|
|-------------------------------------|
|--------------------------5---5-6-7--|
|--0-0---0-0---0-0---0-0-----7--------|

Guitar fills
|--------------------------------------------------------------|
|----------------------------------------12----14-12-----------|
|-----7---9-7---------------b16r14p12----12----14-12-----------|
|--/9---9-----\7-5--------------------14----14-------14~~~~----|
|------------------7~~~~---------------------------------------|
|--------------------------------------------------------------|


Prechorus
                                        . 
|-----------------------------------------------------|
|-----------------------------------------------------|
|-----------------------------------------------------|
|--10----------7-----------9------------9-------------|
|--10----------7-----------9------------9-------------|
|--8-----------5-----------7------------7-------------|


Chorus

Lead guitar
|--------------------------------------------------------------------|
|--10---8---10/12\10-10---8---10/12\10-------------------------------|
|-----7---7-------------7---7----------7---6---7\6---7---6---7\6-----|
|----------------------------------------9---9-----9---9---9-----9---|
|--------------------------------------------------------------------|
|--------------------------------------------------------------------|

|-------------------------------------------------------------------------------|
|--10---8---10/12\10-10---8---10/12\10------------------------------------------|
|-----7---7-------------7---7----------9----11----12\11----9----11----12\11-----|
|----------------------------------------10----10-------10---10----10-------10--|
|-------------------------------------------------------------------------------|
|-------------------------------------------------------------------------------|

|-------------------------------------------|
|-------------------------------------------|
|--9----11----12\11----9----11----12\11-----|
|----10----10-------10---10----10-------10--|
|-------------------------------------------|
|-------------------------------------------|

Rhythm guitar
|-----------------------------------------------------------------|
|-----------------------------------------------------------------|
|--7------7------4------4------7------7------5------2------2------|
|--7------7------4------4------7------7------5------2------2------|
|--5------5------2------2------5------5------3------0------0------|
|-----------------------------------------------------------------|

Post-chorus
Lead guitar
|-------------------------------------------------------------|
|-------------------------------------------------------------|
|--16\--14\--12\--11\--9\--7--7/9---9---7/9-9-9---------------|
|--x----x----x----x----x---x--x-----x---x---x-x---------------|
|--14\--12\--10\--9\---7\--5--5/7---7---5/7-7-7---------------|
|-------------------------------------------------------------|
|
|Rhythm guitar
|-------------------------------------------------------------|
|-------------------------------------------------------------|
|------------4/5-----------4/5-----------4/5------------------|
|--2----2----x---2----2----x---2----2----x---2-2-2-2-3-3-2-2--|
|--2----2----2/3-2----2----2/3-2----2----2/3-2-2-2-2-3-3-2-2--|
|--0--x-0--x-----0--x-0--x-----0--x-0--x-----0-0-0-0-1-1-0-0--|

2nd verse riff
|-------------------------------------|
|-------------------------------------|
|-------------------------------------|
|-------------------------------------|
|--2-2---2-2---2-2---2-2---5---5-6-7--|
|--0-0---0-0---0-0---0-0-----7--------|

Last repeat
|-------------------------------------|
|-------------------------------------|
|-------------------------------------|
|-------------------------------------|
|--2-2---2-2---2-2---2-2---5---5------|
|--0-0---0-0---0-0---0-0-----7---7----|

2nd verse lead fills
|---------------------------0--0-0-0-0-0------------------|
|-------------8b-----------/5--5-3-0----------------------|
|-----7---9-------9~~~~--------------2-0-2b4r2p0----------|
|--/9---9---9------------------------------------2~~~~----|
|---------------------------------------------------------|
|---------------------------------------------------------|


Prechorus 
|-----------------------------------------------------------|
|-----------------------------------------------------------|
|-----------------------------------------------------------|
|--10----------7-----------9-9-9-9-9-9-9-9-9-9-9-9-9-9-9-9--|
|--10----------7-----------9-9-9-9-9-9-9-9-9-9-9-9-9-9-9-9--|
|--8-----------5-----------7-7-7-7-7-7-7-7-7-7-7-7-7-7-7-7--|

                                           .
|-----------------------------------------------------------|
|-----------------------------------------------------------|
|-----------------------------------------------------------|
|--10----10-9--7-----------9-9-9-9-9-9-9-9-9----------------|
|--10----10-9--7-----------9-9-9-9-9-9-9-9-9----------------|
|--8-----8--7--5-----------7-7-7-7-7-7-7-7-7----------------|


Chorus

Lead guitar
|--------------------------------------------------------------------|
|--10---8---10/12\10-10---8---10/12\10-------------------------------|
|-----7---7-------------7---7----------7---6---7\6---7---6---7\6-----|
|----------------------------------------9---9-----9---9---9-----9---|
|--------------------------------------------------------------------|
|--------------------------------------------------------------------|

|-------------------------------------------------------------------------------|
|--10---8---10/12\10-10---8---10/12\10------------------------------------------|
|-----7---7-------------7---7----------9----11----12\11----9----11----12\11-----|
|----------------------------------------10----10-------10---10----10-------10--|
|-------------------------------------------------------------------------------|
|-------------------------------------------------------------------------------|

|-------------------------------------------|
|-------------------------------------------|
|--9----11----12\11----9----11----12\11-----|
|----10----10-------10---10----10-------10--|
|-------------------------------------------|
|-------------------------------------------|

Rhythm guitar
|-----------------------------------------------------------------|
|-----------------------------------------------------------------|
|--7------7------4------4------7------7------5------2------2------|
|--7------7------4------4------7------7------5------2------2------|
|--5------5------2------2------5------5------3------0------0------|
|-----------------------------------------------------------------|


Guitar solo
|----------------------------------------------------------------------|
|--10---8---10/12\10-10---8---10/12\10-10p8-8\7-8p7---7------7---7-----|
|-----7---7-------------7---7-----------------------9---9b11---9---7---|
|----------------------------------------------------------------------|
|----------------------------------------------------------------------|
|----------------------------------------------------------------------|

|----------------------------------------------------------------------|
|--10---8---10/12\10-10---8---10/12\10-10p8-8\7-8p7---7------7---7-----|
|-----7---7-------------7---7-----------------------9---9b11---9---7---|
|----------------------------------------------------------------------|
|----------------------------------------------------------------------|
|----------------------------------------------------------------------|

|----------------------------|
|----------------------------|
|--5--4h5p4------------------|
|------------7---5h7---7-----|
|----------------------------|
|----------------------------|

|--17----15----17/19\17-17----15----17/19\17-17p15-15\14-15p14----14-------14----14-----|
|-----15----15-------------15----15----------------------------17----17b19----17----15--|
|---------------------------------------------------------------------------------------|
|---------------------------------------------------------------------------------------|
|---------------------------------------------------------------------------------------|
|---------------------------------------------------------------------------------------|

|----------------------------------------------------------------------|
|--------7--7h8--/10--8--7--h8p7---8---7h8p7---------------------------|
|--9b11--------------------------9-----------9---7-9-------------------|
|----------------------------------------------------------------------|
|----------------------------------------------------------------------|
|----------------------------------------------------------------------|

Rhythm guitar
|-----------------------------------------------------------------|
|-----------------------------------------------------------------|
|--7------7------4------4------7------7------5------2------2------|
|--7------7------4------4------7------7------5------2------2------|
|--5------5------2------2------5------5------3------0------0------|
|-----------------------------------------------------------------|

Lead guitar
|--------------------------------------------------------------|
|--5---5----7----7-----8-----8-----10----10----12------12------|
|--7b9-b9---9b11-b11---10b12-b12---12b14-b14---14b16---14b16---|
|--------------------------------------------------------------|
|--------------------------------------------------------------|
|--------------------------------------------------------------|
|
|Rhythm guitar
|--------------------------------------------------------------|
|--------------------------------------------------------------|
|--------------------------------------------------------------|
|--2-2--2-2--2-2--2-2--2--2------------------------------------|
|--2-2--2-2--2-2--2-2--2--2------------------------------------|
|--0-0--0-0--0-0--0-0--0--0------------------------------------|

|-------------------------|---------------------------------------------------------------|
|------------0------------|----------------10----11---10h11p10----10------10---10/12~~~~--|
|--2b4---------2b4--------|----------10-------10---------------10-----10------------------|
|-------------------------|-----10------10------------------------------------------------|
|-------------------------|--/8----8------------------------------------------------------|
|-------------------------|---------------------------------------------------------------|
|
|-------------------------|---------------------------------------------------------------|
|-------------------------|---------------------------------------------------------------|
|--4----------------------|---------------------------------------------------------------|
|--4----------------------|---3--3---3----3------3----3----------3------3------2----------|
|--2----------------------|---3--3---3----3------3----3----------3------3------2----------|
|-------------------------|---1--1---1----1------1----1----------1------1------0----------|
Tap to rate this tab
 
# A B C D E F G H I J K L M N O P Q R S T U V W X Y Z