Song name
# A B C D E F G H I J K L M N O P Q R S T U V W X Y Z

The Automatic - Lost At Home tab

took me a while to get the intro/verse but apart from that, pretty simple

e|--7~~~~~~~~~~~~~~~~~~~~~~~~~~|

intro/verse
e|-----2------------2------------6---6-7------6---6-7--|
B|-------2-2/4--------2-4\2--------7------------7------|
G|-3-4----------3-4----------6-8----------6-8----------|
D|-----------------------------------------------------|   x2
A|-----------------------------------------------------|
E|-----------------------------------------------------|


Chorus
e|-----------------------------------------------------------------|
B|-----------------------------------------------------------------|
G|-4-4-4-4-4-4-4-4-4-4-4-4-4-4-6-6-6-6-8-8-8-8-8-8-9-9-9-9-9-9-8-8-|
D|-4-4-4-4-4-4-4-4-4-4-4-4-4-4-6-6-6-6-8-8-8-8-8-8-9-9-9-9-9-9-8-8-|
A|-2-2-2-2-2-2-2-2-2-2-2-2-2-2-4-4-4-4-6-6-6-6-6-6-6-6-6-6-6-6-6-6-| x4
E|-----------------------------------------------------------------|

G|--4~~~~~~~~~~~~~~~~~~~~~~~~~~~~~~|


Verse

Chorus

Bridge
e|---------------------------------------------|
B|---------------------------------------------|
G|-4--3-4--3-4--3-4-6-4-3-3--1-3--1-3--1-3-1-3-|
D|---------------------------------------------|
A|---------------------------------------------|
E|---------------------------------------------|

chorus

bridge again


enjoy

| /  slide up
| \  slide down
| h  hammer-on
| p  pull-off
| ~  vibrato
| +  harmonic
| x  Mute note
Tap to rate this tab
 
# A B C D E F G H I J K L M N O P Q R S T U V W X Y Z