Song name
# A B C D E F G H I J K L M N O P Q R S T U V W X Y Z

The Automatic - Monster tab

			     Monster - The Automatic
----------------------------------------------------------------------------
Tabbed by: Justine Sp. I'm now 15 year, I don't now if it's good, I think it.
Email:///

Tuning:

e|-----10-10-7-8-7--------------------|
B|-----------------7-7-8--------------|
G|-9-9--------------------------------|
D|------------------------------------|
A|------------------------------------|
E|------------------------------------|
                    X3
e|-----10-10-7-8-7-------15-15-14-12--|
B|-----------------7-7-8--------------|
G|-9-9--------------------------------|
D|------------------------------------|
A|------------------------------------|
E|------------------------------------|
Tap to rate this tab
# A B C D E F G H I J K L M N O P Q R S T U V W X Y Z