Song name
# A B C D E F G H I J K L M N O P Q R S T U V W X Y Z

The Automatic - Monster tab

MONSTER - THE AUTOMATIC
IF YOU CANT UNDERSTAND MY TABLATURE
LISTEN TO THE SONG WHILE YOU FIGURE THIS OUT
-------------------------------
INTRO
(CLEAN)
1|------7-10-10-8-7---7-----7---|
2|5---5-----------------7-----8-|
3|------------------------------|
4|------------------------------|
5|------------------------------|
6|------------------------------|
REPEAT X2
-------------------------------
VERSE
(CLEAN)
1|--7---7---7---7-|
2|5---5---5---5---|
3|----------------|
4|----------------|
5|----------------|
6|----------------|
REPEAT X2
1|----10---7---10-|
2|5---------------|
3|----------------|
4|----------------|
5|----------------|
6|----------------|
REPEAT X2
REPEAT ENTIRE PART X2
-------------------------------
CHORUS
(DISTORTION)
PLAY OPEN 5TH STRING POWER CHORD 8 TIMES
PLAY 2ND FRET 5TH STRING POWER CHORD 8 TIMES
PLAY OPEN 6TH STRING POWER CHORD 8 TIMES
PLAY OPEN 4TH STRING POWER CHORD 8 TIMES
PLAY OPEN 5TH STRING POWER CHORD 8 TIMES
PLAY 2ND FRET 5TH STRING POWER CHORD 8 TIMES
PLAY OPEN 6TH STRING POWER CHORD 1 TIME
-------------------------------
SOLO
(DISTORTION)
(FAST PICKING)
1|-------------------------------------------------------|
2|5-5-5-5-7-7-7-7-8-8-8-8-10-10-10-10-8-8-8-8-3-3-3-3-15-|
3|-------------------------------------------------------|
4|-------------------------------------------------------|
5|-------------------------------------------------------|
6|-------------------------------------------------------|
REPEAT X3
1|----------------------------------------------------------------------|
2|5-5-5-5-7-7-7-7-8-8-8-8-10-10-10-10-8-8-8-8-7-7-7-7-5-5-5-5-3-3-3-3-5-|
3|----------------------------------------------------------------------|
4|----------------------------------------------------------------------|
5|----------------------------------------------------------------------|
6|----------------------------------------------------------------------|

-------------------------------

BRIDGE
(CLEAN)
1|--------|
2|--------|
3|x-9-x-9-|
4|--------|
5|x-7-x-7-|
6|--------|
REPEAT X3
1|---------|
2|---------|
3|11-12-11-|
4|---------|
5|9--10--9-|
6|---------|
REPEAT ENTIRE PART X2
-------------------------------
REPEAT
VERSE
CHORUS
-------------------------------
SONG ORDER
INTRO
VERSE
CHORUS
SOLO
BRIDGE
VERSE
CHORUS
-------------------------------
THANKS FOR CHOOSING MY TAB
Tap to rate this tab
# A B C D E F G H I J K L M N O P Q R S T U V W X Y Z