Song name
# A B C D E F G H I J K L M N O P Q R S T U V W X Y Z

The Automatic - Raoul tab

This is an amazing song by an up and coming indy band from Wales, they are going to be
huge, i assure you of that.

I had to adjust this tab from the other version of this, as it is a bit out. Hope it sounds ok for you.

Tuning: EADGBe

intro
e|-------------------------------------------------------------|
B|-------------------------------------------------------------|
G|-------------------------------------------------------------|
D|-6-6--6---6-6--6---9-9--9--9-9--9--11-11-11------------------|   X 4
A|-6-6--6---6-6--6---9-9--9--9-9--9--11-11-11------------------|
E|-4-4--4---4-4--4---7-7--7--7-7--7---9-9-9--------------------|


e|-----------------------------------------------------|
B|-----------------------------------------------------|
G|-----------------------------------------------------|
D|-9-9--9---9-9--9---11-11-11-11-11-11-11-11-----------|   X 1
A|-9-9--9---9-9--9---11-11-11-11-11-11-11-11-----------|
E|-7-7--7---7-7--7---9--9--9--9--9--9--9--9------------|
    
Chorus
e|------------------------------------------------------------------|\
B|------------------------------------------------------------------| \
G|------------------------------------------------------------------|  \
D|-6-6-6-6-6-6-6-6-6-6-6-6-6-6-6-6-6-6-6-6-6-6-6-6-6-6-6-6-6-6-6-6--|   |
A|-6-6-6-6-6-6-6-6-6-6-6-6-6-6-6-6-6-6-6-6-6-6-6-6-6-6-6-6-6-6-6-6--|   |
E|-4-4-4-4-4-4-4-4-4-4-4-4-4-4-4-4-4-4-4-4-4-4-4-4-4-4-4-4-4-4-4-4--|   |
                                                                        |X 2
e|------------------------------------------------------------------|   |
B|------------------------------------------------------------------|   |
G|-9-9-9-9-9-9-9-9-9-9-9-9-9-9-9-9-9-9-9-9-9-9-9-9-9-9-9-9-9-9-9-9--|   |
D|-9-9-9-9-9-9-9-9-9-9-9-9-9-9-9-9-9-9-9-9-9-9-9-9-9-9-9-9-9-9-9-9--|  /
A|-7-7-7-7-7-7-7-7-7-7-7-7-7-7-7-7-7-7-7-7-7-7-7-7-7-7-7-7-7-7-7-7--| /
E|------------------------------------------------------------------|/


Verse 
This is like the intro but the chords are strumed diffrently. The
struming is changed after the 2nd time round.
e|--------------------------------------------------------------|
B|--------------------------------------------------------------|
G|--------------------------------------------------------------|
D|-6-6-6-6-6-6-6-6--9-9-9-9-9-9-9-9-9-9-9-9-9-11-11-11----------|   X4 
A|-6-6-6-6-6-6-6-6--9-9-9-9-9-9-9-9-9-9-9-9-9-11-11-11----------|
E|-4-4-4-4-4-4-4-4--7-7-7-7-7-7-7-7-7-7-7-7-7-9--9---9----------|


Chorus
e|------------------------------------------------------------------|\
B|------------------------------------------------------------------| \
G|------------------------------------------------------------------|  \
D|-6-6-6-6-6-6-6-6-6-6-6-6-6-6-6-6-6-6-6-6-6-6-6-6-6-6-6-6-6-6-6-6--|   |
A|-6-6-6-6-6-6-6-6-6-6-6-6-6-6-6-6-6-6-6-6-6-6-6-6-6-6-6-6-6-6-6-6--|   |
E|-4-4-4-4-4-4-4-4-4-4-4-4-4-4-4-4-4-4-4-4-4-4-4-4-4-4-4-4-4-4-4-4--|   |
                                                                        |X 2
e|------------------------------------------------------------------|   |
B|------------------------------------------------------------------|   |
G|-9-9-9-9-9-9-9-9-9-9-9-9-9-9-9-9-9-9-9-9-9-9-9-9-9-9-9-9-9-9-9-9--|   |
D|-9-9-9-9-9-9-9-9-9-9-9-9-9-9-9-9-9-9-9-9-9-9-9-9-9-9-9-9-9-9-9-9--|  /
A|-7-7-7-7-7-7-7-7-7-7-7-7-7-7-7-7-7-7-7-7-7-7-7-7-7-7-7-7-7-7-7-7--| /
E|------------------------------------------------------------------|/


Bridge

e|--------------------------------------------------------------|
B|--------------------------------------------------------------|
G|--------------------------------------------------------------|
D|-6-6-6-6-6-6-6-6--9-9-9-9-9-9-9-9-9-9-9-9-9-11-11-11----------|   X5 
A|-6-6-6-6-6-6-6-6--9-9-9-9-9-9-9-9-9-9-9-9-9-11-11-11----------|
E|-4-4-4-4-4-4-4-4--7-7-7-7-7-7-7-7-7-7-7-7-7-9--9---9----------|


Chorus
e|------------------------------------------------------------------|\
B|------------------------------------------------------------------| \
G|------------------------------------------------------------------|  \
D|-6-6-6-6-6-6-6-6-6-6-6-6-6-6-6-6-6-6-6-6-6-6-6-6-6-6-6-6-6-6-6-6--|   |
A|-6-6-6-6-6-6-6-6-6-6-6-6-6-6-6-6-6-6-6-6-6-6-6-6-6-6-6-6-6-6-6-6--|   |
E|-4-4-4-4-4-4-4-4-4-4-4-4-4-4-4-4-4-4-4-4-4-4-4-4-4-4-4-4-4-4-4-4--|   |
                                                                        |X 2
e|------------------------------------------------------------------|   |
B|------------------------------------------------------------------|   |
G|-9-9-9-9-9-9-9-9-9-9-9-9-9-9-9-9-9-9-9-9-9-9-9-9-9-9-9-9-9-9-9-9--|   |
D|-9-9-9-9-9-9-9-9-9-9-9-9-9-9-9-9-9-9-9-9-9-9-9-9-9-9-9-9-9-9-9-9--|  /
A|-7-7-7-7-7-7-7-7-7-7-7-7-7-7-7-7-7-7-7-7-7-7-7-7-7-7-7-7-7-7-7-7--| /
E|------------------------------------------------------------------|/
 


I'm not sure if this in in the right key, it is on my guitar, but if it dosen't sound
perfect, than just move it up or down a fret or two.
Tap to rate this tab
# A B C D E F G H I J K L M N O P Q R S T U V W X Y Z