Song name
# A B C D E F G H I J K L M N O P Q R S T U V W X Y Z

The Automatic - On The Campaign Trail tab

he has a weird tuning in this song: drop E flat

intro:
e |----------------------------------------------------------------|
B |----------------------------------------------------------------|repeat in
G |-----------------10-10-8--8-8-8------------------10-10-8--8-8-8-|   verse
D |------------------x-x--x--x-x-x-------------------x-x--x--x-x-x-|
A |--6--9-8-9-6-9-8--8-8--6--6-6-6--6--9-8-9-11-9-8--8-8--6--6-6-6-|
Eb|--0--------0-----10-10-8--8-8-8--0---------------10-10-8--8-8-8-|


chorus:
e |----------------------------------------------------------------|
B |----------------------------------------------------------------|
G |----------------------------------------------------------------|
D |-----9-9----------6-6-----------9-9---------------13-13---------|
A |----------x4-----------x4------------x4------------------x4-----|
Eb|-8-8----------5-5-----------8-8-------------12-12---------------|

back to verse/intro

then chorus once and the second time, strum:
e |
B |
G |------------------------| repeat
D |---9----6----9----13----|
A |---9----6----9----13----|
Eb|---8----5----8----12----|

bridge:
e |-------------------------|
B |-------------------------|
G |-------------------------|
D |-6--6--6--6--4--4--4--4--|
A |-6--6--6--6--4--4--4--4--|
Eb|-5--5--5--5--3--3--3--3--|

chorus strumming again


good song

enjoy

Tap to rate this tab
 
# A B C D E F G H I J K L M N O P Q R S T U V W X Y Z