Song name
# A B C D E F G H I J K L M N O P Q R S T U V W X Y Z

The Automatic - Hightide On Caroline Street tab

Tabbed by :Mcluff

Intro/verse
e|---------4----------------------------------------2------------|
B|-----2-----2---------6b7---------0---0-2-0-----0------4-0------|
G|---3---3-----3--------6b7------1---1-------1-1---1--1----------|x2
D|-4---------------------------2---------------------------------|
A|---------------4-4---------------------------------------------|
E|---------------------------------------------------------------|

This plays through the first verse until the chorus

Chorus
e|--------------------------------------------------------------|
B|--------------------------------------------------------------|
G|---88888888--66666666--44444444-444444------------------------|x4
D|---66666666--44444444--22222222-222222------------------------|
A|--------------------------------------------------------------|
E|--------------------------------------------------------------|

Then Back to the verse. after that you then play around with the above until it goes:

outro:
e|--------------------------------------------------------------------|
B|--------------------------------------------------------------------|
G|----6666666--8888888--10-10-10-10-10-10-10--11-11-11-11-11-11-11----|x4
D|----4444444--6666666--8--8--8--8--8--8--8---9--9--9--9--9--9--9-----|
A|--------------------------------------------------------------------|
E|--------------------------------------------------------------------|

on the second time in the outro it adds a little bit on at the end:
e|--------------------------------------------------------------------|
B|--------------------------------------------------------------------|
G|--10-10-10-10-10-10-10--11-11-11-11-11-11-11--13-13-13--15-15-15----|
D|--8--8--8--8--8--8--8---9--9--9--9--9--9--9---11-11-11--13-13-13----|
A|--------------------------------------------------------------------|
E|--------------------------------------------------------------------|

End on
e|------------------|
B|------------------|
G|--4-4-xxx-4-4-----|x4
D|--2-2-xxx-2-2-----|
A|------------------|
E|------------------|
Tap to rate this tab
 
# A B C D E F G H I J K L M N O P Q R S T U V W X Y Z