Song name
# A B C D E F G H I J K L M N O P Q R S T U V W X Y Z

The Autumn Offering - From Atrophy To Obsession tab

They Put it up on their myspace page so i thought i would put it on here. so yeah.

From Atrophy to Obsession
(Drop C Tuning)

D||---------------------------------|------------------------------------------|
A||---------------------------------|------------------------------------------|
F||---------------------------------|------------------------------------------|
C||--5h-7p-5--------7h-8p-7---------|--8h-10p-8----------10h-12p-10------------|
G||-----------8--7-----------10--8--|------------12--10--------------13--12----|
C||---------------------------------|------------------------------------------|


----------------------------|----------------------------|
----------------------------|----------------------------|
----------------------------|----------------------------|
----------------------------|----------------------------|
--8-------------------------|----------------8--7--5--0--|
--8----8-8-8--8-8-8--8-8-8--|--8-8-8--8-8-8--8--7--5--0--|


-----------------------------|----------------------------|
-----------------------------|----------------------------|
-----------------------------|----------------------------|
-----------------------------|----------------------------|
--0--------------------------|----------------------------|
--0----0-0-0-0-0-------0--0--|-----0--0-----0-0-0--0-0-0--|x4


"Verse" Riff

-------------------------------|----------------------------|
-------------------------------|----------------------------|
-------------------------------|----------------------------|
-------------0h-7h-10p-7----5--|-----7----------------------|
--0----------------------------|-----------8-----5s--8s--7--|
--0----0--0--------------0-----|--0-----0-----0-------------|

-----------------------------|-------------------------------|
-----------------------------|-------------------------------|
-----------------------------|-------------------------------|
-------------10s--12-----10--|-----8-------------------------|
--8--------------------------|-----------12-----8s--12s--10--|
--8----8--8-----------8------|--8-----8------8---------------|

--------------------------|----------------------------|
--------------------------|----------------------------|
--------------------------|----------------------------|
-------------7p--5-----8--|-----7----------------------|
--5-----------------------|-----------8-----5s--8s--7--|
--5----5--5---------5-----|--5-----5-----5-------------|

--------------------------|-------------------------------|
--------------------------|-------------------------------|
--------------------------|-------------------------------|
--------------------------|--7h-8p-7---------7------------|
--7-----------------------|-----------10--8-----10--8--5--|
--7----7--7--7-7-7--7--7--|-------------------------------|

"Chorus" Riff

-------------------------|---------------------------|
-------------------------|---------------------------|
-------------------------|---------------------------|
-------------------------|---------------------------|
--------------8--7--5----|---------------10--8--7----|
--8--0--7--0-------------|--10--0--8--0--------------|

-----------------------------|-------------------------------|
-----------------------------|-------------------------------|
-----------------------------|-------------------------------|
-----------------------------|--12--10-----------------------|
----------------12--10--8----|----------13--12--10--8--7--5--|
--12--0--10--0---------------|-------------------------------|

----------------------|------------------------|------------------------|
----------------------|------------------------|------------------------|
----------------------|------------------------|------------------------|
----------------10----|--14------12------14----|--15------14------12----|
--8------7-------8----|--10------10------10----|--12------10-------8----|
--8------8-------8----|--10------10------10----|--12------10-------8----|
Tap to rate this tab
 
# A B C D E F G H I J K L M N O P Q R S T U V W X Y Z