Song name
# A B C D E F G H I J K L M N O P Q R S T U V W X Y Z

The Autumn Offering - Fear Will Cast No Shadow tab

Fear Will Cast No Shadow

This is directly from their myspace blog. this tab was made by The Autumn Offering.

http://www.myspace.com/theautumnoffering/blog


Drop C# tuning

intro

D#-----------------------------------|
A#-----------------------------------|
F#-----------------------------------|
C#-----------------------------------|
G#--5-----6---------6---6---5---5----|
C#----3-0---0-0-0-0---0---0---0---0--|


D#---------------------------------------|
A#---------------------------------------|
F#---------------------------------------|
C#---------------------------------------|
G#--5-----6-----------------6-10-6-------|
C#----3-0---0-0-0-0-10-9-10--------10-9--|

DRUM FILL


D#-----------------------------------------------|
A#-----------------------------------------------|
F#-----------------------------------------------|
C#-----------------------------------------------|
G#----------6-10-6---------------10-13-10--------|
C#--10-9-10--------10-9-13-12-13----------13-12--|


D#---------------------------------------|
A#---------------------------------------|
F#---------------------------------------|
C#---------------------------------------|
G#----------6-10-6------------3-6-3------|
C#--10-9-10--------10-9-6-5-6-------6-5--|

Double kick part

D#-------------------------------------------------------------------------------------------|
A#-------------------------------------------------------------------------------------------|
F#-------------------------------------------------------------------------------------------|
C#-------------------------------------------------------------------------------------------|
G#--5---------------------3---------------------8---------------------7----------------------|
C#----0000-0000-0000-0000---0000-0000-0000-0000---0000-0000-0000-0000---0000-0000-0000-0000--| x2

end fill

D#--------------------------------------------|
A#--------------------------------------------|
F#-------------11-14---------------7-10-------|
C#--10-13------------10-13-6-9----------------|
G#--------9-12-----------------5-8------4~----|
C#--------------------------------------------|


verse

D#-----------------------------------|
A#-----------------------------------|
F#-----------------------------------|
C#-----------------------------------|
G#--5-----6---------6---6---5---5----|
C#----3-0---0-0-0-0---0---0---0---0--|


D#---------------------------------------|
A#---------------------------------------|
F#---------------------------------------|
C#---------------------------------------|
G#--5-----6-----------------6-10-6-------|
C#----3-0---0-0-0-0-10-9-10--------10-9--|


verse variation

D#---------------------------------------|
A#---------------------------------------|
F#---------------------------------------|
C#---------------------------------------|
G#--5-----6-----------------6-10-6-------|
C#----3-0---0-0-0-0-10-9-10--------10-9--|





D#----------------------------|
A#----------------------------|
F#----------------------------|
C#----------------------------|
G#--5-----6---------8------4--|
C#----3-0---0-0-0-0-----------|



D#---------------------------------------|
A#---------------------------------------|
F#---------------------------------------|
C#---------------------------------------|
G#--5-----6-----------------6-10-6-------|
C#----3-0---0-0-0-0-10-9-10--------10-9--|




D#----------------------------|
A#----------------------------|
F#----------------------------|
C#----------------------------|
G#--5-----6---------4------8--|
C#----3-0---0-0-0-0-----------|  x2


chorus

D minor chord

C minor chord


breakdown


D#--------------------------------------------------------------------|
A#--------------------------------------------------------------------|
F#--------------------------------------------------------------------|
C#------------------------------------------------------------------3-|
G#--5-----5---------5-----6---------5-----5---------3-5-3-------3-5---|
C#----3-0---0-0-0-0---3-0---0-0-0-0---3-0---0-0-0-0-------6-5-6-------|


Tap to rate this tab
 
# A B C D E F G H I J K L M N O P Q R S T U V W X Y Z