Song name
# A B C D E F G H I J K L M N O P Q R S T U V W X Y Z

The Autumn Offering - The Yearning tab

This tab was on their Myspace Blog page. Im surprised nobody noticed it and made a tab. 
LOL ohwell.

enjoy

The Yearning
(Drop C Tuning)

Main Riff
(triplet feel with speed picking)

|-------------------------------------------------------|
|-------------------------------------------------------|
|-------------------------------------------------------|
|-------------------------------------------------------|
|--8-----8-----7-----10-----12-----12-----13-----12-----|
|----8-0---8-0---8-0----8-0----8-0----8-0----8-0----8-0-|

|--------------------------------------------------|
|--------------------------------------------------|
|--------------------------------------------------|
|--------------------------------------------------|
|--5-----5-----3-----7-----8-----8-----7-----7-----|
|----5-0---5-0---5-0---5-0---5-0---5-0---3-0---3-0-|
Tap to rate this tab
 
# A B C D E F G H I J K L M N O P Q R S T U V W X Y Z