Song name
# A B C D E F G H I J K L M N O P Q R S T U V W X Y Z

The Autumn Offering - The Great Escape tab

THE AUTUMN OFFERING
THE GREAT ESCAPE
C#-G#-C#-F#-A#-D#
*=PALM MUTE
)(=BEND/UNBEND
^= HAMMER ON
\OR/= SLIDE

THE REVELATIONS OF THE UNSUNG ALBUM IS IN C#-G#-C#-F#-A#-D#
NOT C-G-C-F-A-D.THEY SWITCHED TO DROP C FOR EMBRACE THE GUTTER

TABBED BY andherembrace

TAB FOR BOTH GTRS WITH TIMELINE

BOTH

0:09                                                       0:14
----------------------------------------------------------------|
----------------------------------------------------------------|
----------------------------------------------------------------|
------------------------^----ph------------------------^----ph--|
*-*-***-*-*-***-*-*-***-5-6-*--)-*-***-*-*-***-*-*-***-5-6-*--)-|
0-0-000-0-0-000-0-0-000-5-6-0-3--0-000-0-0-000-0-0-000-5-6-0-3--|

0:14                                                       1:18
----------------------------------------------------------------|
----------------------------------------------------------------|
----------------------------------------------------------------|
------------------------^----ph---------------------------------|
-*-***-*-*-***-*-*-***-5-6-*--)-*-***-***-***--^---^---^---^----|
-0-000-0-0-000-0-0-000-5-6-0-3--0-000-000-000-6-0-5-0-3-0-5-0---|

1:18                                                       0:23
----------------------------------------------------------------|
----------------------------------------------------------------|
----------------------------------------------------------------|
------------------------^----ph------------------------^----ph--|
*-*-***-*-*-***-*-*-***-5-6-*--)-*-***-*-*-***-*-*-***-5-6-*--)-|
0-0-000-0-0-000-0-0-000-5-6-0-3--0-000-0-0-000-0-0-000-5-6-0-3--|

0:23                                                       0:28
----------------------------------------------------------------|
----------------------------------------------------------------|
----------------------------------------------------------------|
------------------------^----ph---------------------------------|
-*-***-*-*-***-*-*-***-5-6-*--)-*-***-***-***--^---^---^---^----|
-0-000-0-0-000-0-0-000-5-6-0-3--0-000-000-000-6-0-5-0-3-0-5-0---|

LEFT
0:28                                                                   0:32
---------------------------------------------------------------------------|
---------------------------------------------------------------------------|
--------------------^----^----^----^---------------------^----^----^----^--|
------------------13-0-12-0-10-0-12-0------------------13-0-12-0-10-0-12-0-|
-*-*-***-*-*-***-----------------------*-*-***-*-*-***---------------------|
-0-0-000-0-0-000-----------------------0-0-000-0-0-000---------------------|
RIGHT
---------------------------------------------------------------------------|
---------------------------------------------------------------------------|
-------------------^---^---^---^-------------------------^---^---^---^-----|
------------------6-0-5-0-3-0-5-0-----------------------6-0-5-0-3-0-5-0----|
-*-*-***-*-*-***-----------------------*-*-***-*-*-***---------------------|
-0-0-000-0-0-000-----------------------0-0-000-0-0-000---------------------|

L
0:32                                                            0:38
--------------------------------------------------------------------|
--------------------------------------------------------------------|
-------------------^---^---^---^------------------------------------|
------------------6-0-5-0-3-0-5-0-----------------------------------|
-*-*-***-*-*-***-------------------*-*-***-*-*-***-*-*-***-*-*------|
-0-0-000-0-0-000-------------------0-0-000-0-0-000-0-0-000-0-0-\----|
R
---------------------------------------------------------------------|
---------------------------------------------------------------------|
---------------------------------------------------------------------|
---------------------------------------------------------------------|
-*-*-***-*-*-***---^---^---^---^---*-*-***-*-*-***-*-*-***-*-*-------|
-0-0-000-0-0-000--6-0-5-0-3-0-5-0--0-0-000-0-0-000-0-0-000-0-0-\-----|

L
0:38                                                              0:42
-----------------------------------------------------------------------|
-----------------------------------------------------------------------|
-----------_------------------------------------------10-10--13-13-13--|
----------/ \---///-///-///-///-///-///--------___-----x--x---x--x--x--|
-*-*-***-5-6-5-*-8---6---9---8---6---8--****--/   \--*-8--8--11-11-11--|
-0-0-000-------0------------------------0000-1-0-1-0-0-----------------|
R
-----------------------------------------------------------------------|
-----------------------------------------------------------------------|
-----------_-------------------------------------------3--3---6--6--6--|
----------/ \---///-///-///-///-///-///--------___-----x--x---x--x--x--|
-*-*-***-5-6-5-*-8---6---9---8---6---8--****--/   \--*-1--1---4--4--4--|
-0-0-000-------0------------------------0000-1-0-1-0-0-----------------|

L
0:42                                                          0:47
-------------------------------------------------------------------|
-------------------------------------------------------------------|
-----------_-------------------------------------------------------|
----------/ \---///-///-///-///-----------___-------5-7---8---5/7--|
-*-*-***-5-6-5-*-8---6---9---8--\--****--/   \--*-*-----*---*------|
-0-0-000-------0----------------\--0000-1-0-1-0-0-0-----0---0------|
R
--------------------------------------------------------------------|
-----------_--------------------------------------------------------|
----------/ \---///-///-///-///-------------------------------------|
---------7-8-7---10--8---11--10-\--------___------12-14---15---12/14|
-*-*-***-------*----------------\-****--/   \--*-*------*----*------|
-0-0-000-------0------------------0000-1-0-1-0-0-0------0----0------|

L
0:47                                                               0:52
-----------------------------------------------------------------------|
-----------------------------------------------------------------------|
-----------_------------------------------------------10-10--13-13-13--|
----------/ \---///-///-///-///-///-///--------___-----x--x---x--x--x--|
-***-***-5-6-5-*-8---6---9---8---6---8--****--/   \--*-8--8--11-11-11--|
-000-000-------0------------------------0000-1-0-1-0-0-----------------|
R
-----------------------------------------------------------------------|
-----------------------------------------------------------------------|
-----------_-------------------------------------------3--3---6--6--6--|
----------/ \---///-///-///-///-///-///--------___-----x--x---x--x--x--|
-***-***-5-6-5-*-8---6---9---8---6---8--****--/   \--*-1--1---4--4--4--|
-000-000-------0------------------------0000-1-0-1-0-0-----------------|

L
0:52                                           0:56
---------------------------------------------------|
---------------------------------------------------|
-----------_---------------------------------------|
----------/ \---///-///-///-///-----------___------|
-*-*-***-5-6-5-*-8---6---9---8--\--****--/   \-----|
-0-0-000-------0----------------\--0000-1-0-1-0----|
R
-----------------------------------|
-----------_-----------------------|
----------/ \---///-///-///-///----|
---------7-8-7---10--8---11--10-\--|
-*-*-***-------*----------------\--|
-0-0-000-------0-------------------|

BOTH
0:56                                                       1:01
---------------------------------------------------------------|
---------------------------------------------------------------|
---------------------------------------------------------------|
--------___------------___------------___------------___-------|
-****--/   \----****--/   \----****--/   \----****--/   \---14-|
-0000-1-0-1-0---0000-1-0-1-0---0000-1-0-1-0---0000-1-0-1-0--14\|

L
1:01                                                              1:06
----------------------------------------------------------------------|
----------------------------------------------------------------------|
----------------------------------------------------------------------|
--------___--------------___---------------___------------------------|
-****--/   \--5/6-****--/   \--6/8--****--/   \--8/9-****--^--8-6-5/6-|
-0000-1-0-1-0-----0000-1-0-1-0------0000-1-0-1-0-----0000-1-0---------|
R
----------------------------------------------------------------------|
----------------------------------------------------------------------|
----------------------------------------------------------------------|
--------___---7/8--------___---8/10--------___--10/11---------10-8-7/8|
-****--/   \------****--/   \-------****--/   \------****--^----------|
-0000-1-0-1-0-----0000-1-0-1-0------0000-1-0-1-0-----0000-1-0---------|

L
1:06                                                             1:10 
----------------------------------------------------------------------|
----------------------------------------------------------------------|
----------------------------------------------------------------------|
--------___--------------___---------------___-----------------^----ph|
-****--/   \--5/6-****--/   \--6/8--****--/   \--8/9-****--^--5-6-*--)|
-0000-1-0-1-0-----0000-1-0-1-0------0000-1-0-1-0-----0000-1-0-5-6-0-3-|
R
----------------------------------------------------------------------|
----------------------------------------------------------------------|
----------------------------------------------------------------------|
--------___---7/8--------___---8/10--------___--10/11----------^------|
-****--/   \------****--/   \-------****--/   \------****--^--5-6-*--)|
-0000-1-0-1-0-----0000-1-0-1-0------0000-1-0-1-0-----0000-1-0-5-6-0-3-|

BOTH
1:10                                                        1:15
----------------------------------------------------------------|
----------------------------------------------------------------|
----------------------------------------------------------------|
------------------------^----ph------------------------^----ph--|
-*-***-*-*-***-*-*-***-5-6-*--)-*-***-*-*-***-*-*-***-5-6-*--)--|
-0-000-0-0-000-0-0-000-5-6-0-3--0-000-0-0-000-0-0-000-5-6-0-3---|


1:15                                                        1:19
----------------------------------------------------------------|
----------------------------------------------------------------|
----------------------------------------------------------------|
------------------------^----ph---------------------------------|
-*-***-*-*-***-*-*-***-5-6-*--)-*-***-***-***--^---^---^---^----|
-0-000-0-0-000-0-0-000-5-6-0-3--0-000-000-000-6-0-5-0-3-0-5-0---|

1:19                                                         1:24
----------------------------------------------------------------|
----------------------------------------------------------------|
----------------------------------------------------------------|
------------------------^----ph------------------------^----ph--|
-*-***-*-*-***-*-*-***-5-6-*--)-*-***-*-*-***-*-*-***-5-6-*--)--|
-0-000-0-0-000-0-0-000-5-6-0-3--0-000-0-0-000-0-0-000-5-6-0-3---|

1:24                                                        1:29
----------------------------------------------------------------|
----------------------------------------------------------------|
----------------------------------------------------------------|
------------------------^----ph---------------------------------|
-*-***-*-*-***-*-*-***-5-6-*--)-*-***-***-***--^---^---^---^----|
-0-000-0-0-000-0-0-000-5-6-0-3--0-000-000-000-6-0-5-0-3-0-5-0---|

L
1:29                                                                 1:34
---------------------------------------------------------------------------|
---------------------------------------------------------------------------|
--------------------^----^----^----^---------------------^----^----^----^--|
------------------13-0-12-0-10-0-12-0------------------13-0-12-0-10-0-12-0-|
-*-*-***-*-*-***-----------------------*-*-***-*-*-***---------------------|
-0-0-000-0-0-000-----------------------0-0-000-0-0-000---------------------|
R
---------------------------------------------------------------------------|
---------------------------------------------------------------------------|
-------------------^---^---^---^-------------------------^---^---^---^-----|
------------------6-0-5-0-3-0-5-0-----------------------6-0-5-0-3-0-5-0----|
-*-*-***-*-*-***-----------------------*-*-***-*-*-***---------------------|
-0-0-000-0-0-000-----------------------0-0-000-0-0-000---------------------|

L
1:34                                                            1:39
--------------------------------------------------------------------|
--------------------------------------------------------------------|
-------------------^---^---^---^------------------------------------|
------------------6-0-5-0-3-0-5-0-----------------------------------|
-*-*-***-*-*-***-------------------*-*-***-*-*-***-*---0-swell------|
-0-0-000-0-0-000-------------------0-0-000-0-0-000-0---0------------|
R
---------------------------------------------------------------------|
---------------------------------------------------------------------|
---------------------------------------------------------------------|
---------------------------------------------------------------------|
-*-*-***-*-*-***---^---^---^---^---*-*-***-*-*-***-*----0------------|
-0-0-000-0-0-000--6-0-5-0-3-0-5-0--0-0-000-0-0-000-0----0-swell------|

BOTH REPEATS OVER AND OVER/FADES OUT
1:39                                                 1:43
---------------------------------------------------------|
---------------------------------------------------------|
---------------------------------------------------------|
---------------------------------------------------------|
-0-*-*-*--*-*-*--*-*-*-*-*--*-*-*-*-*--*-*-*-*-*--*-*-*--|
-0-0-0-0--0-0-0--0-0-0-0-0--0-0-0-0-0--0-0-0-0-0--0-0-0--|


TAPPING PART  REPEATS OVER AND OVER/FADES OUT
1:49                                                          1:50

-T--__----T-__----T-__---T--__---T--__----T-__----T-__---T--__---|
---/  \----/  \----/  \----/  \----/  \----/  \----/  \----/  \--|
-14-10-7-14-10-7-15-10-7-15-10-7-14-10-7-14-10-7-15-10-7-15-10-7-|
-----------------------------------------------------------------|
-----------------------------------------------------------------|
-----------------------------------------------------------------|

1:50                                                         1:51

-T--__----T-__----T-__---T--__---T--__----T-__----T-__---T--__---|
---/  \----/  \----/  \----/  \----/  \----/  \----/  \----/  \--|
-17-10-7-17-10-7-15-10-7-15-10-7-14-10-7-14-10-7-15-10-7-15-10-7-|
-----------------------------------------------------------------|
-----------------------------------------------------------------|
-----------------------------------------------------------------|

1:51                                                    1:52

--T-_----T-_----T-_---T--_----T-_----T-_---T--_----T-_-----|
---/ \----/ \----/ \----/ \----/ \----/ \----/ \----/ \----|
-12-7-6-12-7-6-14-7-6-14-7-6-12-7-6-12-7-6-14-7-6-14-7-6---|
-----------------------------------------------------------|
-----------------------------------------------------------|
-----------------------------------------------------------|

1:52                                                 1:53

--T-_----T-_----T-_---T--_----T-_----T-_---T--_----T-_-----|
---/ \----/ \----/ \----/ \----/ \----/ \----/ \----/ \----|
-15-7-6-15-7-6-14-7-6-14-7-6-12-7-6-12-7-6-12-7-6-12-7-6---|
-----------------------------------------------------------|
-----------------------------------------------------------|
-----------------------------------------------------------|

Tap to rate this tab
# A B C D E F G H I J K L M N O P Q R S T U V W X Y Z