Song name
# A B C D E F G H I J K L M N O P Q R S T U V W X Y Z

The Autumn Offering - Deflowered tab

THE AUTUMN OFFERING
DEFLOWERED
C#-G#-F#-A#-D#

TABBED BY andherembrace

TAB INCLUDES WHOLE SONG WITH BOTH PARTS


                                                 0:09
L
------------------------------------------------------|
---------------------------------------------5-5-5-5--|
---------------------------------------------8-8-8-8--|
---------------------------------------------X-X-X-X--|
--0-------0-------0----P------P--------------6-6-6-6\-|
--0-------0-------0-----S\-----S\---------------------|
R
------------------------------------------------------|
------------------------------------5-5-5-5-----------|
------------------------------------8-8-8-8-----------|
------------------------------------X-X-X-X-----------|
--0-------0-------0-----------P-----6-6-6-6\----------|
--0-------0-------0------------S\---------------------|


0:09                                                         0:14
L
------------------------------------------------------------------|
------------------------------------------------------------------|
-------------------------------_----------------------------------|
------------------------------/ \---------------------------------|
-*-*-5-*-*-7-*-8-*-5-*-8-*-*-8-7-0-*-*-8-*-*-8-*-8-*-*-7-*-*-7-*-7|
-0-0---0-0---0---0---0---0-0-------0-0---0-0---0---0-0---0-0---0--|
R
------------------------------------------------------------------|
------------------------------------------------------------------|
-------------------------------_----------------------------------|
------------------------------/ \---------------------------------|
-*-*-5-*-*-7-*-8-*-5-*-8-*-*-8-7-0-*-*-5-*-*-5-*-5-*-*-3-*-*-3-*-3|
-0-0---0-0---0---0---0---0-0-------0-0---0-0---0---0-0---0-0---0--|


0:14                                                                1:18
L
-------------------------------------------------------------------------|
-------------------------------------------------------------------------|
-------------------------------_-----------------------------------------|
------------------------------/ \----------------------------------------|
-*-*-5-*-*-7-*-8-*-5-*-8-*-*-8-7-0-*-*-8-*-*-88888-*-*-7777-10101010-7777|
-0-0---0-0---0---0---0---0-0-------0-0---0-0-------0-0-------------------|
R
-------------------------------------------------------------------------|
-------------------------------------------------------------------------|
-------------------------------_-----------------------------------------|
------------------------------/ \---------------------------2222---------|
-*-*-5-*-*-7-*-8-*-5-*-8-*-*-8-7-0-*-*-5-*-*-55555-*-*-3333------3333----|
-0-0---0-0---0---0---0---0-0-------0-0---0-0-------0-0-------------------|


0:18                                                   0:23
L
-------------------------------------------------------------|
-------------------------------------------------------------|
-------------------------------_-----------------------------|
------------------------------/ \----------------------------|
-*-*-5-*-*-7-*-8-*-5-*-8-*-*-8-7-0-/10---8---7---8---7---3---|
-0-0---0-0---0---0---0---0-0---------------------------------|
R
-------------------------------------------------------------|
-------------------------------------------------------------|
-------------------------------_-----3----------5------------|
------------------------------/ \----X----------X------------|
-*-*-5-*-*-7-*-8-*-5-*-8-*-*-8-7-0---1----------3------------|
-0-0---0-0---0---0---0---0-0---------------------------------|


0;23                                                0:27
L
--------------------------------------------------------|
--------------------------------------------------------|
-------------------------------_-------------------9----|
------------------------------/ \------------------X----|
-*-*-5-*-*-7-*-8-*-5-*-8-*-*-8-7-0-*-*-8-*-*-8-*-8-7-P--|
-0-0---0-0---0---0---0---0-0-------0-0---0-0---0------S\|
R
--------------------------------------------------------|
--------------------------------------------------------|
-------------------------------_-------------------5----|
------------------------------/ \------------------X----|
-*-*-5-*-*-7-*-8-*-5-*-8-*-*-8-7-0-*-*-5-*-*-5-*-5-3-P--|
-0-0---0-0---0---0---0---0-0-------0-0---0-0---0------S\|


0:27                                                   0:32
L
-----------------------------------------------------------|
-----------------------------------------------------------|
---------------------------------------------5--------0----|
-000000-222222-333333-000000-33-22-0000----3---3----2---2--|
-----------------------------------------5--------3--------|
-----------------------------------------------------------|
R
-----------------------------------------------------------|
-----------------------------------------------------------|
---------------------------------------------5--------5----|
-------------------------------------------3---3----3---3--|
--***---------***--------***--------***--1--------3--------|
--000---------000--------000--------000--------------------|


0:32                                                   0:36
L
-----------------------------------------------------------|
-----------------------------------------------------------|
---------------------------------------------5--------0----|
-000000-222222-333333-000000-33-22-0000----3---3----2---2--|
-----------------------------------------5--------3--------|
-----------------------------------------------------------|
R
-----------------------------------------------------------|
-----------------------------------------------------------|
---------------------------------------------5--------5----|
-------------------------------------------3---3----3---3--|
--***---------***--------***--------***--1--------3--------|
--000---------000--------000--------000--------------------|


0:36                                                                             0:43
L
---------------------------------------------------------------------------------------|
---------------------------------------------------------------------------------------|
-----------------------------222222-333333-232020--------------------------------------|
---------------333333-555555---------------------000000-222222-333333-000000-33-22-0000|
***-***-***-***------------------------------------------------------------------------|
000-000-000-000------------------------------------------------------------------------|
R
---------------------------------------------------------------------------------------|
---------------------------------------------------------------------------------------|
-----------------10-----------------5--5-5-5-------------------------------------------|
-----------------X------------------X--X-X-X-------------------------------------------|
-***-***-***-***-8------------------3--3-3-3------***-----***-----***------***---------|
-000-000-000-000----------------------------------000-----000-----000------000---------|


0:43                                   0:52
L
--------------------------------------------|
--------------------------------------------|
---7------------------9---------------------|
---X------------------X---------------------|
---5------------------7---------------------|
--------------------------------------------|
R
--------------------------------------------|
--------------------------------------------|
---3------------------5---------------------|
---X------------------X---------------------|
---1------------------3---------------------|
--------------------------------------------|


0:52                                            1:01
L
------------------------------------------------------|
--------------------------------5----5----------------|
--------------------------------8----8----------------|
--------------------------------X----X---------BAR DIP|
-*-*-*-*---*-*-*---*-*-*-*-*--*-6-*--6-*-*-*-*--------|
-0-0-0-0---0-0-0---0-0-0-0-0--0---0----0-0-0-0-12\----|
R
------------------------------------------------------|
------------------------------------------------------|
--------------------------------8----8----------------|
--------------------------------8----8---------BAR DIP|
-*-*-*-*---*-*-*---*-*-*-*-*--*-6-*--6-*-*-*-*--------|
-0-0-0-0---0-0-0---0-0-0-0-0--0---0----0-0-0-0--0\----|


1:01                                                           1:09
L
--------------------------------------------------------------------|
----------------------------5---5-----------------------------------|
----------------------------8---8-----------------------------------|
----------------------------X---X-----------------------------------|
-*-*-*---*-*-*-*-*----P---*-6-*-6--*-*-*-*-*-6-5-*-5-4-*-4-3--*-3-2-|
-0-0-0---0-0-0-0-0-----S\-0---0----0-0-0-0-0-----0-----0-----0------|
R
---------------------------------------------------------------------|
---------------------------------------------------------------------|
-----------------------------8---8-----------------------------------|
-----------------------------8---8-----------------------------------|
-*-*-*---*-*-*-*-*-----P---*-6-*-6-*-*-*-*-*-0-------------*-*-*---*-|
-0-0-0---0-0-0-0-0------S\-0---0---0-0-0-0-0-0-------------0-0-0---0-|


1:09                                                 1:16
L
---------------------------------------------------------|
--------------5---5--------------------------------------|
--------------8---8--------------------------------------|
--------------X---X------------PHPH-PHPH--PHPH---PHPH----|
-*-*-*-*----*-6-*-6--*-*-*-*-*-6-5-*-5-4-*-4-3--*-3-2----|
-0-0-0-0----0---0----0-0-0-0-0-----0-----0-----0---------|
R
-----------------------------------------------------------|
-----------------------------------------------------------|
--------------8---8----------------------------------------|
--------------8---8----------------------------------------|
-*-*-*-*----*-6-*-6--*-*-*-*-*-0-------------*-*-*---*-----|
-0-0-0-0----0---0----0-0-0-0-0-0-------------0-0-0---0-----|


                +=BAR IS PULLED UP SLOWLY TO
                  INCREASE PITCH AND THEN RETURNED TO NORMAL
L  1:16                                  1:28
--------------------------------------------|
--------------5---5-5--+--4--+--5--+--4-----|
--------------8---8-8-----7-----8-----7-----|
--------------X---X-X-----X-----X-----X-----|
-*-*-*-*----*-6-*-6-6-----5-----6-----5-----|
-0-0-0-0----0---0---------------------------|
R
--------------------------------------------|
--------------------------------------------|
--------------8---8-8--+--7--+--8--+--7-----|
--------------8---8-8-----7-----8-----7-----|
-*-*-*-*----*-6-*-6-6-----5-----6-----5-----|
-0-0-0-0----0---0---------------------------|


1:28                                               1:38
GT.3 W/WAH AT ALMOST TOE DOWN POSTION/PREVIOUS RIFF REPEATS
-------------------------------------------------------|
-------------------------------------------------------|
----------8~-----------7~-------------8~-----------7~--|
-0-7-8-7-------0-6-7-6-------0-7-8-7-------0-6-7-6-----|
-------------------------------------------------------|
-------------------------------------------------------|


1:38                                                          1:43
GT.1+2
----------------------------------------------------------------------|
----------------------------------------------------------------------|
----------------------------------------------------------------------|
-*-*-*-*--------------------------*-*-*-*-----------------------------|
-1-1-1-1--------------------------0-0-0-0-----------------------------|
-1-1-1-1--------------------------0-0-0-0-----------------------------|
GT.3
----------------------------------------------------------------------|
----------------------------------------------------------------------|
-----------------8---------------------------------7------------------|
---------0-7-8-7---7-8-7-0-7-8-7-----------0-6-7-6---6-7-6-0-6-7-6----|
----------------------------------------------------------------------|
----------------------------------------------------------------------|


1:43                                                             1:48
GT.1+2
----------------------------------------------------------------------|
----------------------------------------------------------------------|
----------------------------------------------------------------------|
-*-*-*-*--------------------------*-*-*-*-----------------------------|
-1-1-1-1--------------------------0-0-0-0-----------------------------|
-1-1-1-1--------------------------0-0-0-0-----------------------------|
GT.3
----------------------------------------------------------------------|
----------------------------------------------------------------------|
-----------------8---------------------------------7------------------|
---------0-7-8-7---7-8-7-0-7-8-7-----------0-6-7-6---6-7-6-0-6-7/\----|
----------------------------------------------------------------------|
----------------------------------------------------------------------|


1:48                                                              1:53
GT.1+2
----------------------------------------------------------------------|
----------------------------------------------------------------------|
----------------------------------------------------------------------|
-*-*-*-*--------------------------*-*-*-*-----------------------------|
-1-1-1-1--------------------------0-0-0-0-----------------------------|
-1-1-1-1--------------------------0-0-0-0-----------------------------|
GT.3 LEFT  W/LOWER HARM REAPEATS ON RIGHT
----------------------------------------------------------------------|
-----------------9--------------------------------8-------------------|
---------0-7-8-7---7-8-7-0-7-8-7-0--------0-6-7-6---6-7-6-0-6-7-6-----|
----------------------------------------------------------------------|
----------------------------------------------------------------------|
----------------------------------------------------------------------|


1:53                                                            1:58
GT.1+2
----------------------------------------------------------------------|
----------------------------------------------------------------------|
----------------------------------------------------------------------|
-*-*-*-*--------------------------*-*-*-*-----------------------------|
-1-1-1-1--------------------------0-0-0-0-----------------------------|
-1-1-1-1--------------------------0-0-0-0-----------------------------|
GT.3 LEFT  W/LOWER HARM REAPEATS ON RIGHT
----------------------------------------------------------------------|
-----------------9--------------------------------8-------------------|
---------0-7-8-7---7-8-7-0-7-8-7-0--------0-6-7-6---6-7-6-0-6-7/\-----|
----------------------------------------------------------------------|
----------------------------------------------------------------------|
----------------------------------------------------------------------|


1;58                                                                   2:18
L
----------------------------------------------------------------------------|
----------------------------------------------------------------------------|
-------------10--9--------------10--9--------------10--9--------------10--9-|
-------------10--9--------------10--9--------------10--9--------------10--9-|
-0-----1-----8-*-7--0-----1-----8-*-7--0-----1-----8-*-7--0----1------8-*-7-|
-0-------------0----0-------------0----0-------------0----0-------------0---|
R
------------------------------------------------------------------------------|
------------------------------------------------------------------------------|
-------3------10--9--------3----10--12-------3------10--9--------3----10--12--|
-------X------X---X--------X----X---X--------X------X---X--------X----X---X---|
-0-----1------8-*-7-0------1----8-*-10-0-----1------8-*-7-0------1----8-*-10--|
-0--------------0---0-------------0----0------------------0-------------0-----|


2:18                                                         2:22
L
------------------------------------------------------------------|
------------------------------------------------------------------|
-------------------------------_----------------------------------|
------------------------------/ \---------------------------------|
-*-*-5-*-*-7-*-8-*-5-*-8-*-*-8-7-0-*-*-8-*-*-8-*-8-*-*-7-*-*-7-*-7|
-0-0---0-0---0---0---0---0-0-------0-0---0-0---0---0-0---0-0---0--|
R
------------------------------------------------------------------|
------------------------------------------------------------------|
-------------------------------_----------------------------------|
------------------------------/ \---------------------------------|
-*-*-5-*-*-7-*-8-*-5-*-8-*-*-8-7-0-*-*-5-*-*-5-*-5-*-*-3-*-*-3-*-3|
-0-0---0-0---0---0---0---0-0-------0-0---0-0---0---0-0---0-0---0--|


2:22                                                               2:26
L
-------------------------------------------------------------------------|
-------------------------------------------------------------------------|
-------------------------------_-----------------------------------------|
------------------------------/ \----------------------------------------|
-*-*-5-*-*-7-*-8-*-5-*-8-*-*-8-7-0-*-*-8-*-*-88888-*-*-7777-10101010-7777|
-0-0---0-0---0---0---0---0-0-------0-0---0-0-------0-0-------------------|
R
-------------------------------------------------------------------------|
-------------------------------------------------------------------------|
-------------------------------_-----------------------------------------|
------------------------------/ \---------------------------2222---------|
-*-*-5-*-*-7-*-8-*-5-*-8-*-*-8-7-0-*-*-5-*-*-55555-*-*-3333------3333----|
-0-0---0-0---0---0---0---0-0-------0-0---0-0-------0-0-------------------|


2:26                                                    2:31
L
-------------------------------------------------------------|
-------------------------------------------------------------|
-------------------------------_-----------------------------|
------------------------------/ \----------------/8--8--7----|
-*-*-5-*-*-7-*-8-*-5-*-8-*-*-8-7-0-/10---8---7---------------|
-0-0---0-0---0---0---0---0-0---------------------------------|
R
-------------------------------------------------------------|
-------------------------------------------------------------|
-------------------------------_-----3---3---3----5--5--5----|
------------------------------/ \----X---X---X----X--X--X----|
-*-*-5-*-*-7-*-8-*-5-*-8-*-*-8-7-0---1---1---1----3--3--3----|
-0-0---0-0---0---0---0---0-0---------------------------------|

2:31                                                2:36
L
--------------------------------------------------------|
--------------------------------------------------------|
-------------------------------_-------------------9----|
------------------------------/ \------------------X----|
-*-*-5-*-*-7-*-8-*-5-*-8-*-*-8-7-0-*-*-8-*-*-8-*-8-7-P--|
-0-0---0-0---0---0---0---0-0-------0-0---0-0---0------S\|
R
--------------------------------------------------------|
--------------------------------------------------------|
-------------------------------_-------------------5----|
------------------------------/ \------------------X----|
-*-*-5-*-*-7-*-8-*-5-*-8-*-*-8-7-0-*-*-5-*-*-5-*-5-3-P--|
-0-0---0-0---0---0---0---0-0-------0-0---0-0---0------S\|


2:36                                                                      2:45
L
-------------------------------------------------------------------------------|
-------------------------------------------------------------------------------|
----------------------------5-------0------------------------------5-------0---|
--------------------------3---3---2---2--------------------------3---3---2---2-|
-*-*---*-*---*-*---*-*--5-------3-------*-*---*-*---*-*---*-*--5-------3-------|
-0-0---0-0---0-0---0-0------------------0-0---0-0---0-0---0-0------------------|
R
-------------------------------------------------------------------------------|
-------------------------------------------------------------------------------|
----------------------------5-------5------------------------------5-------5---|
--------------------------3---3---3---3--------------------------3---3---3---3-|
-*-*---*-*---*-*---*-*--1-------3-------*-*---*-*---*-*---*-*--1-------3-------|
-0-0---0-0---0-0---0-0------------------0-0---0-0---0-0---0-0------------------|


2:45                                                                         2:53
L
----------------------------------------------------------------------------------|
----------------------------------------------------------------------------------|
-------------------------------------222222-333333-232020-------------------------|
-----------------------333333-555555----------------------------------------------|
-*-*---*-*---*-*---*-*------------------------------------*-*---*-*---*-*---*-*---|
-0-0---0-0---0-0---0-0------------------------------------0-0---0-0---0-0---0-0---|
R
-----------------------------------------------------------------------------------|
-----------------------------------------------------------------------------------|
-----------------------10-----------------5--5-5-5---------------------------------|
-----------------------X------------------X--X-X-X---------------------------------|
-*-*---*-*---*-*---*-*-8------------------3--3-3-3---------*-*---*-*---*-*---*-*---|
-0-0---0-0---0-0---0-0-------------------------------------0-0---0-0---0-0---0-0---|

2:53                                   3:08
L
--------------------------------------------|
--------------------------------------------|
---7------------------9---------------------|
---X------------------X---------------------|
---5------------------7---------------------|
--------------------------------------------|
R
--------------------------------------------|
--------------------------------------------|
---3------------------5---------------------|
---X------------------X---------------------|
---1------------------3---------------------|
--------------------------------------------|


3:08                                                       3:14
L
---------------------------------------------------------------|
-----------4---4-4-----------------------4---4-4------------4--|
---------7---7---7---------------------7---7---7----------7----|
---------------------------------------------------------------|
-***-***------------*--*--*--*-***-***------------*--*--*------|
-000-000------------0--0--0--0-000-000------------0--0--0------|
R
---------------------------------------------------------------|
---------------------------------------------------------------|
---------------------------------------------------------------|
---------------------------------------------------------------|
-***-***------------*--*--*--*-***-***------------*--*--*------|
-000-000------------0--0--0--0-000-000------------0--0--0------|


3:14                                                       3:20
L
---------------------------------------------------------------|
-----------4---4-4-----------------------4---4-4------------4--|
---------7---7---7---------------------7---7---7----------7----|
---------------------------------------------------------------|
-***-***------------*--*--*--*-***-***------------*--*--*-----\|
-000-000------------0--0--0--0-000-000------------0--0--0-----\|
R
---------------------------------------------------------------|
---------------------------------------------------------------|
---------------------------------------------------------------|
---------------------------------------------------------------|
-***-***------------*--*--*--*-***-***------------*--*--*-----\|
-000-000------------0--0--0--0-000-000------------0--0--0-----\|


3:20                                                              3:26
L
-----------------------------------------------------------------------|
-----------4---4-4------------4---4-------------4---4-4------------4---|
---------7---7---7----------7---7-------------7---7---7----------7-----|
-----------------------------------------------------------------------|
-***-***------------*--*--*----------***-***--------------------------\|
-000-000------------0--0--0----------000-000-------------0--0--0------\|
R
-----------------------------------------------------------------------|
-----------------------------------------------------------------------|
-----------------------------------------------------------------------|
-----------------------------------------------------------------------|
-***-***------------*--*--*----------***-***--------------------------\|
-000-000------------0--0--0----------000-000-------------0--0--0------\|


3:26                                                             3:33
L
-----------------------------------------------------------------------|
-----------4---4-4------------------------4---4-4------------4---4-----|
---------7---7---7----------------------7---7---7----------7---7-------|
-----------------------------------------------------------------------|
-***-***------------*--*--*--*--***-***-------------*--*--*------------|
-000-000------------0--0--0--0--000-000-------------0--0--0------------|
R
-----------------------------------------------------------------------|
-----------------------------------------------------------------------|
-----------------------------------------------------------------------|
-----------------------------------------------------------------------|
-***-**-------------*--*--*--*--***-***-------------*--*--*------------|
-000-000------------0--0--0--0--000-000-------------0--0--0------------|

END

BOTH
----------------------------------------------|
----------------------------------------------|
----------------------------------------------|
----------------------------------------------|
-*-*-*--PH~~----------------------------------|
-0-0-0-3--------------------------------------|
Tap to rate this tab
# A B C D E F G H I J K L M N O P Q R S T U V W X Y Z