Song name
# A B C D E F G H I J K L M N O P Q R S T U V W X Y Z

The Autumn Offering - Walk The Line tab

THE AUTUMN OFFERING 
WALK THE LINE
CGCFAD

TABBED BY andherembrace


both
----------------------------------------------------------------------|
----------------------------------------------------------------------|
-------_----------------_----------------_----------------_-----------|
------/ \------^-------/ \------^-------/ \------^-------/ \------^---|
-----5-6-5/10\3-5-----5-6-5/10\3-5-----5-6-5/10\3-5-----5-6-5/10\3-5--|
-000--------------000--------------000--------------000---------------|
 ***              ***              ***              ***

0:05
L
----------------------------------------------------------------|
----------------------------------------------------------------|
----------------------------------------------------------------|
-8-7---8-7-------8-7---8-7-------8-7---8-7----------------------|
-6\5---6\5-------6\5---6\5-------6\5---6\5-------000-111-333-444|
-----0-----0-000-----0-----0-000-----0-----0-000-000-111-333-444|
     *     * ***     *     * ***     *     * *** *** *** *** ***
R
----------------------------------------------------------------|
----------------------------------------------------------------|
----------------------------------------------------------------|
-7---------------8---------------7------------------------------|
-5---------------6---------------5---------------000-111-333-444|
-------------------------------------------------000-111-333-444|
                                                 *** *** *** ***


L
----------------------------------------------------------------|
----------------------------------------------------------------|
----------------------------------------------------------------|
-8-7---8-7-------8-7---8-7-------8-7---8-7----------------------|
-6\5---6\5-------6\5---6\5-------6\5---6\5-------000-111-333-444|
-----0-----0-000-----0-----0-000-----0-----0-000-000-111-333-444|
     *     * ***     *     * ***     *     * *** *** *** *** ***
R
----------------------------------------------------------------|
----------------------------------------------------------------|
----------------------------------------------------------------|
-7---------------8---------------7------------------------------|
-5---------------6---------------5---------------000-111-333-444|
-------------------------------------------------000-111-333-444|
                                                 *** *** *** ***


0:15
L
--------------------------------------------------------------------|
--------------------------------------------------------------------|
--------------------------------------------------------------------|
8-7---12-11--5-7-8-7-----8-7-----8-7---12-11--10-8-8-7-----8-7------|
6\5---10\9---3/5-6\5-----6\5-----6\5---10\9----8\6-6\5-----6\5------|
----0------0---------000-----000-----0-------0---------000-----000--|
    *      *         ***     ***     *       *         ***     ***
R
---------------------------------------------------------------|
---------------------------------------------------------------|
---------------------------------------------------------------|
8-7---12-11------8-7-----8-7-----8-7---12-11-------8-7-----8-7-|
6\5---10\9-------6\5-----6\5-----6\5---10\9--------6\5-----6\5-|
---------------------------------------------------------------|

L
---------------------------------------------------------------|
---------------------------------------------------------------|
---------------------------------------------------------------|
8-7---12-11--5-7-8-7-----8-7-----8-7---12-11--10-8-8-7-----8-7-|
6\5---10\9---3/5-6\5-----6\5-----6\5---10\9----8\6-6\5-----6\5-|
----0------0---------000-----000-----0-------0---------000-----|
    *      *         ***     ***     *       *         ***     
R
---------------------------------------------------------------|
---------------------------------------------------------------|
---------------------------------------------------------------|
8-7---12-11------8-7-----8-7-----8-7---12-11-------8-7-----8-7-|
6\5---10\9-------6\5-----6\5-----6\5---10\9--------6\5-----6\5-|
---------------------------------------------------------------|


0:26
L
-----------------------------------------------------------------|
-----------------------------------------------------------------|
-----------------------------------------------------------------|
-----------------------------------------------------------------|
-------------------------------------------------------------0-1-|
-------------------------------------------------------------0-1-|
                                                             *
R
-----------------------------------------------------------------|
-----------------------------------------------------------------|
------------___--------------___--------------___----------------|
-----------/   \------------/   \------------/   \---------------|
----------5-3-0-5----------6-5-0-6----------5-3-0-5----------0-1-|
-00000000---------00000000---------00000000---------00000000-0-1-|
 ********         ********         ********         ******** *

L
---------------------------------------------------------------|
---------------------------------------------------------------|
---------------------------------------------------------------|
---------------------------------------------------------------|
-0---------0---------0---------0----0---0---0---0--1-1-1-1-1---|
-0-|-------0-|-------0-|-------0-|--0---0---0---0--0-0-0-0-0---|
                                                   * * * * *  
R
---------------------------------------------------------------|
---------------------------------------------------------------|
------------___--------------___--------------___--------------|
-----------/   \------------/   \------------/   \-------------|
----------5-3-0-5----------6-5-0-6----------5-3-0-5-1-1-1-1-1--|
-00000000---------00000000---------00000000---------0-0-0-0-0--|
 ********         ********         ********         * * * * *

0:36
B
---------------------------------------------------------------------|
---------------------------------------------------------------------|
------------___--------------___--------------___--------------------|
-----------/   \------------/   \------------/   \---------3/5\3-----|
----------5-3-0-5----------6-5-0-6----------5-3-0-5--6-5-6-------6-5-|
-00000000---------00000000---------00000000--------------------------|
 ********         ********         ********          * * * 

---------------------------------------------------------------------|
---------------------------------------------------------------------|
------------___--------------___--------------___--------------------|
-----------/   \------------/   \------------/   \---------3/5\3-----|
----------5-3-0-5----------6-5-0-6----------5-3-0-5--6-5-6-------6-5-|
-00000000---------00000000---------00000000--------------------------|
 ********         ********         ********          * * * 


0:46
L
---------------------------------------------------------------------------|
---------------------------------------------------------------------------|
----------___------------__--------------__--------------------------------|
---------/   \----------/  \------------/  \------------101012121010-------|
--------1210012--------1312013--------1210012131312121313----------13131212|
00000000-------00000000-------00000000-------------------------------------|
********       ********       ********       * * * * * * * * * * * * * * * *

R
---------------------------------------------------------------------|
---------------------------------------------------------------------|
------------___--------------___--------------___--------------------|
-----------/   \------------/   \------------/   \--------335533-----|
----------5-3-0-5----------6-5-0-6----------5-3-0-5-665566------6655-|
-00000000---------00000000---------00000000--------------------------|
 ********         ********         ********         **************** 

L
--------------------------------------------------------------|
--------------------------------------------------------------|
----------___------------__--------------__-------------------|
---------/   \----------/  \------------/  \------------------|
--------1210012--------1312013--------1210012--6------5-------|
00000000-------00000000-------00000000------------5~-----3~---|
********       ********       ********       

R
----------------------------------------------------------------|
----------------------------------------------------------------|
------------___--------------___--------------___---------------|
-----------/   \------------/   \------------/   \--------------|
----------5-3-0-5----------6-5-0-6----------5-3-0-5-6------5----|
-00000000---------00000000---------00000000------------5~-----3~|
 ********         ********         ********         


0:57

B
---------------------------------------------------------|
---------------------------------------------------------|
---------------------------------------------------------|
---------------------------------------------------------|
-0-0-0-0-0-0-0-0-6-----5-----0-0-0-0-0-0-0-0-6-----5-----|
-0-0-0-0-0-0-0-0---5~----3~--0-0-0-0-0-0-0-0---5~----3~--|
 * * * * * * * *             * * * * * * * *

---------------------------------------------------------|
---------------------------------------------------------|
---------------------------------------------------------|
---------------------------------------------------------|
-0-0-0-0-0-0-0-0-6-----5-----0-0-0-0-0-0-0-0-6-----5-----|
-0-0-0-0-0-0-0-0---5~----3~--0-0-0-0-0-0-0-0---5~----3~--|
 * * * * * * * *             * * * * * * * *

1:07

MELODY
---------------------------------------------------------------|
---------------------------------------------------------------|
-10~~~----10-12-12/14\12-10-9~~~---9-10-12/14\12-9-8~~~--------|
---------------------------------------------------------------|
---------------------------------------------------------------|
---------------------------------------------------------------|

RYTHM
-----------------------------------------------------------------|
-----------------------------------------------------------------|
-----------------------------------------------------------------|
-----------------------------^--------------------------------^--|
-0-1-0---00-0-1--0-1-0--0-1-010---0-1-0---00-0-1--0-1-0--0-1-010-|
-0-1-0---00-0-1--0-1-0--0-1-010---0-1-0---00-0-1--0-1-0--0-1-010-|
 * * *   ** * *  * * *  * *       * * *   ** * *  * * *  * *

MELODY
-------------------------------------------------8--------------|
-----------------------------------------8-10-11---11-10-8------|
-8-10-10/12\10-8-7~~--8-7---------7-8-10-------------------10---|
--------------------------10-8-10-------------------------------|
----------------------------------------------------------------|
----------------------------------------------------------------|

RYTHM
-----------------------------------------------------------------|
-----------------------------------------------------------------|
-----------------------------------------------------------------|
-----------------------------^--------------------------------^--|
-0-1-0---00-0-1--0-1-0--0-1-010---0-1-0---00-0-1--0-1-0--0-1-010-|
-0-1-0---00-0-1--0-1-0--0-1-010---0-1-0---00-0-1--0-1-0--0-1-010-|
 * * *   ** * *  * * *  * *       * * *   ** * *  * * *  * *

MELODY
---------------------------------------------------------------|
---------------------------------------------------------------|
-10~~~----10-12-12/14\12-10-9~~~---9-10-12/14\12-9-8~~~--------|
---------------------------------------------------------------|
---------------------------------------------------------------|
---------------------------------------------------------------|

RYTHM
-----------------------------------------------------------------|
-----------------------------------------------------------------|
-----------------------------------------------------------------|
-----------------------------^--------------------------------^--|
-0-1-0---00-0-1--0-1-0--0-1-010---0-1-0---00-0-1--0-1-0--0-1-010-|
-0-1-0---00-0-1--0-1-0--0-1-010---0-1-0---00-0-1--0-1-0--0-1-010-|
 * * *   ** * *  * * *  * *       * * *   ** * *  * * *  * *

MELODY
--------------------------------------------------------------|
--------------------------------------------------------------|
-8-10-10/12\10-8-7~~--8-7---------7-8-10-8-7------------------|
--------------------------10-8-10------------10-8-7-----------|
----------------------------------------------------10-8-6-5V-|
--------------------------------------------------------------|

RYTHM
-----------------------------------------------------------------|
-----------------------------------------------------------------|
-----------------------------------------------------------------|
-----------------------------^--------------------------------^--|
-0-1-0---00-0-1--0-1-0--0-1-010---0-1-0---00-0-1--0-1-0--0-1-010-|
-0-1-0---00-0-1--0-1-0--0-1-010---0-1-0---00-0-1--0-1-0--0-1-010-|
 * * *   ** * *  * * *  * *       * * *   ** * *  * * *  * *

1:28
L
------------------------|
------------------------|
------------------------|
------------------------|
-0------3-2-6-5---------|
-0--3-2-----------------|
R
------------------------|
------------------------|
------------------------|
-----------6-5----------|
-0-3-2-6-5------/--\----|
-0--------------/--\----|


B
---------------------------------------------------------------------|
---------------------------------------------------------------------|
------------___--------------___--------------___--------------------|
-----------/   \------------/   \------------/   \---------3/5\3-----|
----------5-3-0-5----------6-5-0-6----------5-3-0-5--6-5-6-------6-5-|
-00000000---------00000000---------00000000--------------------------|
 ********         ********         ********          * * * 

---------------------------------------------------------------------|
---------------------------------------------------------------------|
------------___--------------___--------------___--------------------|
-----------/   \------------/   \------------/   \---------3/5\3-----|
----------5-3-0-5----------6-5-0-6----------5-3-0-5--6-5-6-------6-5-|
-00000000---------00000000---------00000000--------------------------|
 ********         ********         ********          * * * 

L
---------------------------------------------------------------------------|
---------------------------------------------------------------------------|
----------___------------__--------------__--------------------------------|
---------/   \----------/  \------------/  \------------101012121010-------|
--------1210012--------1312013--------1210012131312121313----------13131212|
00000000-------00000000-------00000000-------------------------------------|
********       ********       ********       * * * * * * * * * * * * * * * *

R
---------------------------------------------------------------------|
---------------------------------------------------------------------|
------------___--------------___--------------___--------------------|
-----------/   \------------/   \------------/   \--------335533-----|
----------5-3-0-5----------6-5-0-6----------5-3-0-5-665566------6655-|
-00000000---------00000000---------00000000--------------------------|
 ********         ********         ********         **************** 

L
--------------------------------------------------------------|
--------------------------------------------------------------|
----------___------------__--------------__-------------------|
---------/   \----------/  \------------/  \------------------|
--------1210012--------1312013--------1210012--6------5-------|
00000000-------00000000-------00000000------------5~-----3~---|
********       ********       ********       

R
----------------------------------------------------------------|
----------------------------------------------------------------|
------------___--------------___--------------___---------------|
-----------/   \------------/   \------------/   \--------------|
----------5-3-0-5----------6-5-0-6----------5-3-0-5-6------5----|
-00000000---------00000000---------00000000------------5~-----3~|
 ********         ********         ********         

1:52

B
---------------------------------------------------------|
---------------------------------------------------------|
---------------------------------------------------------|
---------------------------------------------------------|
-0-0-0-0-0-0-0-0-6-----5-----0-0-0-0-0-0-0-0-6-----5-----|
-0-0-0-0-0-0-0-0---5~----3~--0-0-0-0-0-0-0-0---5~----3~--|
 * * * * * * * *              * * * * * * * *

---------------------------------------------------------|
---------------------------------------------------------|
---------------------------------------------------------|
---------------------------------------------------------|
-0-0-0-0-000-0-0-6-----5-----0-0-0-0-000-000-6-----5-----|
-0-0-0-0-000-0-0---5~----3~--0-0-0-0-000-000---5~----3~--|
 * * * * *** * *             * * * * *** ***
---------------------------------------------------------|
---------------------------------------------------------|
---------------------------------------------------------|
---------------------------------------------------------|
-0-0-0-0-000-0-0-6-----5-----0-0-0-0-000-000-6-----5-----|
-0-0-0-0-000-0-0---5~----3~--0-0-0-0-000-000---5~----3~--|
 * * * * *** * *             * * * * *** ***


---------------------------------------------------------|
---------------------------------------------------------|
---------------------------------------------------------|
---------------------------------------------------------|
-0-0-0-0-0-0-0-0-6-----5-----0-0-0-0-0-0-0-0-6-----5----0|
-0-0-0-0-0-0-0-0---5~----3~--0-0-0-0-0-0-0-0---5~----3~-0|
 * * * * * * * *              * * * * * * * *


END


---------0--------------5----8----------------5-----------|
-----6-------6-------------------6--------6-------6-------|
---7---7---7---7------7---7----7---7----7---7---7---7-----|
--------------------------------------8-------------------|
-------------------5--------------------------------------|
-0-----------------0--------------------------------------|


---------0--------------|
-----6-------6----------|
---7---7---7---7--------|
-5----------------------|
------------------------|
------------------------|
Tap to rate this tab
# A B C D E F G H I J K L M N O P Q R S T U V W X Y Z