Guitaretab - guitar tabs
Song name
# A B C D E F G H I J K L M N O P Q R S T U V W X Y Z

The Autumn Offering - Embrace The Gutter tab

Embrace the Gutter
(Drop C Tuning)
Main Riff

D||------------------------------|----------------------------------|
A||------------------------------|----------------------------------|
F||------------------------------|----------------------------------|
C||------------------------------|----------------------------------|
G||--0----------0h-7h-8p-0----8--|-----10-----12--------0h-8h-12p-8-|
C||--0----0--0-------------0-----|--0------0------0--0--------------|
[ Tab from: http://www.guitaretab.com/t/the-autumn-offering/74447.html ]
------------------------------|----------------------------------|
------------------------------|----------------------------------|
------------------------------|----------------------------------|
------------------------------|----------------------------------|
--8----------0h-7h-8p-0----8--|-----10-----12--------0h-8h-12p-8-|
--8----0--0-------------0-----|--0------0------0--0--------------|

-------------------------------|----------------------------------|
-------------------------------|----------------------------------|
-------------------------------|----------------------------------|
-------------------------------|----------------------------------|
--10----------0h-7h-8p-0----8--|-----10-----12--------0h-8h-12p-8-|
--10----0--0-------------0-----|--0------0------0--0--------------|
     
-------------------------------------|---------------------------------|
-------------------------------------|---------------------------------|
--9h-10p-9--------------9--10s--12s--|--10--9--------------------------|
------------12--10--12---------------|---------12--10--8h--10p--8------|
-------------------------------------|-----------------------------12--|
-------------------------------------|---------------------------------|
Related for Embrace The Gutter tab
Advertisement will be closed in 10 seconds