Song name
# A B C D E F G H I J K L M N O P Q R S T U V W X Y Z

The Autumn Offering - One Last Thtill tab

Drop C

-----------------------------------------------------------------------------|
-----------------------------------------------------------------------------|
-----------------------------------------------------------------------------|
-0--------------------3--------2-----------5--0----------------------3-------|
---1---------------------5--------3-----6--------1----------------------5----|
-----0--0--000--0--0--------0--------0--------------0--0--000--0--0----------|
          Pm                Pm       Pm
continued
-----------------------------------------------------------------------------|
-----------------------------------------------------------------------------|
-----------------------------------------------------------------------------|
--2-----5-----7-----0----------------------3-------2----------5--0-----------|
-----3-----6-----8-----1----------------------5-------3----6-------1---------|
--------------------------0--0--000--0--0--------0------0--------------------|
                              Pm                 Pm     Pm

continued
-------------------------------------------|
-------------------------------------------|
--------------------------------------3--2-|
-------------------2h3p2-----2--3--5-------|
--------------------------5----------------|
--0--0--000--0--0--------------------------|
       Pm
Tap to rate this tab
 
# A B C D E F G H I J K L M N O P Q R S T U V W X Y Z