Song name
# A B C D E F G H I J K L M N O P Q R S T U V W X Y Z

The Autumn Offering - Silence And Goodbye tab

Silence and Goodbye
The Autumn Offering
Fear Will Cast No Shadow

Tabbed by Rutledge
or Onslaught On whichever u prefer

The song is pretty simple the intro is fun to play and the variations stay similar cool 
for beginners


Intro

D|-------------------------------------10-------------|
A|-/11-10------10-11-13-11-10b---10-11------11-10b----|
F|--------12b-----------------------------------------|
C|----------------------------------------------------|
G|----------------------------------------------------|
C|----------------------------------------------------|

D|10h11p10--------------------------------------------|
A|---------13-11-10h11p10----10b----------------------|
F|------------------------12--------------------------|
C|----------------------------------------------------|
G|----------------------------------------------------|
C|----------------------------------------------------|

repeat this as many times as needed

Main riff

D|----------------------------------------------------|
A|----------------------------------------------------|
F|----------------------------------------------------|
C|--5---1--3----8-8-8-8-7-7-7-7-----------------------|
G|--5---1--3----8-8-8-8-7-7-7-7-----------------------|
C|--5---1--3----8-8-8-8-7-7-7-7-----------------------|

its basic variations of that/|\/|\ and different counts its pretty easy to tell by ear

then it goes to this

D|----------------------------------------------------|
A|----------------------------------------------------|
F|----------------------------------------------------|
C|--5-6-5-6--1-1-2-1-3-3-2-3--8-8-8-7-7-7-------------|
G|--5--------1-------3--------8-8-8-7-7-7-------------|
C|--5--------1-------3--------8-8-8-7-7-7-------------|

then this thing

D|----------------------------------------------------|
A|-10h11p10--10-9-10----------------------------------|
F|----------------------------------------------------|
C|----------------------------------------------------|
G|----------------------------------------------------|
C|----------------------------------------------------|

D|-10h11p10-------------------------------------------|
A|----------11-10h11p10-9-8b--------------------------|
F|----------------------------------------------------|
C|----------------------------------------------------|
G|----------------------------------------------------|
C|----------------------------------------------------|

there might be a slight variation but this sounds very close to perfect if it isnt

Then right before the solo it begins to do this

D|----------------------------------------------------|
A|----------------------------------------------------|
F|--00000000000----3h5--------------------------------|
C|-----------------------5--3b------------------------|
G|----------------------------------------------------|
C|----------------------------------------------------|

havent gotten the solo yet but the song is easy i might post the solo later if i can get it by ear

oh i forgot at the end instead of


D|----------------------------------------------------|
A|----------------------------------------------------|
F|----------------------------------------------------|
C|--5---1--3----8-8-8-8-7-7-7-7-----------------------|
G|--5---1--3----8-8-8-8-7-7-7-7-----------------------|
C|--5---1--3----8-8-8-8-7-7-7-7-----------------------|

after the solo it switches to 2 frets up which would be

D|----------------------------------------------------|
A|----------------------------------------------------|
F|----------------------------------------------------|
C|-7--3--5---10-10-10-10-9-9-9-9----------------------|
G|-7--3--5---10-10-10-10-9-9-9-9----------------------|
C|-7--3--5---10-10-10-10-9-9-9-9----------------------|

hope you enjoy comment and rate it im sure that it is correct
Tap to rate this tab
# A B C D E F G H I J K L M N O P Q R S T U V W X Y Z