Song name
# A B C D E F G H I J K L M N O P Q R S T U V W X Y Z

The Autumns - Just You And I tab

The Autumns "Just You and I"
From the album: Covers
Music: Angelo Badalamenti
Lyrics: David Lynch

Standard tuning (EADGBE low to high)


Intro :

E |--------10-8--------|--------10-8---|-------7-5-------|-------7-5---|
B |------8------8h10p8-|------8------8-|-----5-----------|-----5-----5-|
G |----9---------------|----9----------|---5-------5h7p5-|---5---------|
D |-10-----------------|-10------------|-7---------------|-7-----------|
A |--------------------|---------------|-----------------|-------------|
E |--------------------|---------------|-----------------|-------------|

(Repeat)

Verse 1 :

E |--------10-8--------|--------10-8---|-------7-5-------|-------7-5---|
B |------8------8h10p8-|------8------8-|-----5-----------|-----5-----5-|
G |----9---------------|----9----------|---5-------5h7p5-|---5---------|
D |-10-----------------|-10------------|-7---------------|-7-----------|
A |--------------------|---------------|-----------------|-------------|
E |--------------------|---------------|-----------------|-------------|

(Repeat)

E |-------5h6p5-----|-------5h6p5-----|-------7h8p7-----|-------7h8p7-----|
B |---6---------6---|---6---------6---|---8---------8---|---8---------8---|
G |-----5---------5-|-----5-----------|-----7---------7-|-----7---------7-|
D |-7---------------|-7-------------7/|-9---------------|-9---------------|
A |-----------------|-----------------|-----------------|-----------------|
E |-----------------|-----------------|-----------------|-----------------|

E |--------10-8--------|--------10-8---|-------7h8p7-----|-------7-----|
B |------8------8h10p8-|------8------8-|---8---------8---|-----8---8---|
G |----9---------------|----9----------|-----7---------7-|---7-------7-|
D |-10-----------------|-10------------|-9---------------|-9-----------|
A |--------------------|---------------|-----------------|-------------|
E |--------------------|---------------|-----------------|-------------|

Verse 2:

Play first 12 measures of Verse 1, then these last 4 measures:

E |--------10-8--------|--------8-----|-----------------|-----------------|
B |------8------8h10p8-|------8---8---|-11------11------|-11------11------|
G |----9---------------|----9-------9-|----9-------9----|----9-------9----|
D |-10-----------------|-10-----------|------10------10-|------10------10-|
A |--------------------|--------------|-----------------|-----------------|
E |--------------------|--------------|-----------------|-----------------|

Bridge (?) the 'In love we go strolling together' part :

E |-------5h6p5-----|-------5h6p5-----|-------7h8p7-----|-------7h8p7-----|
B |---6---------6---|---6---------6---|---8---------8---|---8---------8---|
G |-----5---------5-|-----5-----------|-----7---------7-|-----7---------7-|
D |-7---------------|-7-------------7/|-9---------------|-9---------------|
A |-----------------|-----------------|-----------------|-----------------|
E |-----------------|-----------------|-----------------|-----------------|

E |--------10-8--------|--------8-----|-----------------|-----------------|
B |------8------8h10p8-|------8---8---|-11------11------|-11------11------|
G |----9---------------|----9-------9-|----9-------9----|----9-------9----|
D |-10-----------------|-10-----------|------10------10-|------10------10-|
A |--------------------|--------------|-----------------|-----------------|
E |--------------------|--------------|-----------------|-----------------|

Repeat first 4 measures of the 'Bridge', then:

E |--------10-8--------|--------8-----|-------7h8p7-----|-----------------|
B |------8------8h10p8-|------8---8---|---8---------8---|-----------------|
G |----9---------------|----9-------9-|-----7---------7-|-----------------|
D |-10-----------------|-10-----------|-9---------------|-9---------------|
A |--------------------|--------------|-----------------|-----------------|
E |--------------------|--------------|-----------------|-----------------|

Repeat 'Verse 1' again, then repeat the intro and fade it out ..

lyrics:

Just you And I
Just You And I
Togther forever In love

Just you And I
Just You And I
Together forever In love

In love
We go strolling together
In love
We go strolling forever
Oh oh oh

Just you And I
Just You And I
Togther forever In love

Just you And I
Just you And I

(Fade Out)
Tap to rate this tab
# A B C D E F G H I J K L M N O P Q R S T U V W X Y Z