Song name
# A B C D E F G H I J K L M N O P Q R S T U V W X Y Z

The Autumns - Desole tab

Desole by The Autumns

Tabbed by SuperBeef (SuperBeefTabs@gmail.com)

This tab is my interpretation of others work, and is not for commercial use.  

Standard Tuning EADGBE


Intro/Verse

This plays through most of the song

e-|---3-0-7-0-3---3-0-7-0-3-----3--6-5h6p5-0---------0------|
B-|-1-----------1-------------3-----------------1--------1--|
G-|-------------------------3----------------------2---2----|
D-|-------------------------------------------3-------------|
A-|---------------------------------------------------------|
E-|---------------------------------------------------------|

End Solo

(With Vibrato effect)

e-|-----------------------------------------------------------------|
B-|-----------------------------------------------------------------|
G-|-----------------------------------------------------------------|
D-|-3-2----3-2---3-2------------------3-2----0-2/5-5/7-8-8/10-5/7-5-|
A-|-----3------2-----1-3/5-1-0h1p0--------3-------------------------|
E-|---------------------------------1-------------------------------|

I haven't quite worked out the bridge section yet.

************************************

| /   slide up
| \   slide down
| h   hammer-on
| p   pull-off
| ~   vibrato
| +   harmonic
| x   Mute note
| b   Bend
| pb  Pre-bend
| br  Bend release
| pbr Pre-bend release
| brb Bend release bend

************************************
Tap to rate this tab
# A B C D E F G H I J K L M N O P Q R S T U V W X Y Z