Song name
# A B C D E F G H I J K L M N O P Q R S T U V W X Y Z

The Avalanches - Frontier Psychiatrist tab

This is just the cool little outro riff to 'Frontier Psychiatrist.' All the other tabs 
Iíve seen with this part written have it written wrong, so Iíve decided to post the 
correct version. This is 100% right and is such a cool little part.


E--4-----2-----0--------2-----0--------------------------|
B----5-----4-----2--------4-----2----4-------------------|
G------6-----4-----2--------4-----2----4-----------------|
D----------------------------------------6---------------|
A--------------------------------------------------------|
E--------------------------------------------------------|

E------------0-2-4-5---------------0-2-4------------------|
B------0-2-4-----------------0-2-4------------------------|
G--1-2-------------------1-2------------------------------|
D----------------------4----------------------------------|
A---------------------------------------------------------|
E---------------------------------------------------------|
Tap to rate this tab
# A B C D E F G H I J K L M N O P Q R S T U V W X Y Z