Song name
# A B C D E F G H I J K L M N O P Q R S T U V W X Y Z

The Avett Brothers - Pretty Girl From San Diego tab

Intro

]--7---9----7---|
]--9---11---7---|
]--9---11---8---|
]--9---11---9---|
]--7---9----9---|
]--x---x----7---|

Verse

]--7---9----7-------7----7----|
]--9---11---7-------9----7----|
]--9---11---8-------9----8----|
]--9---11---9-------9----9----|
]--7---9----9-------7----9----|
]--x---x----7-------x----7----|


Chorus?

]--7----7-6-5-----5-----7---7-----7----|
]--7----7-6-5-----5-----9---7-----9----|
]--8----8-7-6-----6-----9---8-----9----|
]--9----9-8-7-----7-----9---9-----9----|
]--9----9-8-7-----7-----7---9-----7----|
]--7----7-6-5-----5-----x---7-----x----|

[verse]
[Chorus]

Break

]--5----7----5----7-----7-x-6-x-5--5-----7---|
]--5----9----5----9-----7-x-6-x-5--5-----7---|
]--6----9----6----9-----8-x-7-x-6--6-----8---|
]--7----9----7----9-----9-x-8-x-7--7-----9---|
]--7----7----7----7-----9-x-8-x-7--7-----9---|
]--5----x----5----x-----7-x-6-x-5--5-----7---|

[Intro/Chorus for solo]
[Verse]
[Chorus]
[Break]

Outro

]--7-----5----|
]--7-----5----|
]--8-----6----|
]--9-----7----|
]--9-----7----|
]--7-----5----|
Tap to rate this tab
 
# A B C D E F G H I J K L M N O P Q R S T U V W X Y Z