The Avett Brothers - Bella Donna tab

BELLA DONNA by The Avett Brothers


INTRO:

guitar 1:
   A
e|----------------------------------|
B|----------------------------------|
G|----------------------------------|
D|---2---2---2---2---2---2---2---2--|
A|-0---0---0---0---0---0---0---0----|
E|----------------------------------|
   DM7
e|----------------------------------|
B|----------------------------------|
G|----------------------------------|
D|---4---4---4---4---4---4---4---4--|
A|-5---5---5---5---5---5---5---5----|
E|----------------------------------|
   A
e|----------------------------------|
B|----------------------------------|
G|----------------------------------|
D|---2---2---2---2---2---2---2---2--|
A|-0---0---0---0---0---0---0---0----|
E|----------------------------------|
   DM7
e|----------|
B|----------|
G|----------|
D|-4--4-----|
A|-5-----5--|
E|----------|

guitar 2:
       A
e|-----------------------|
B|----------2-3-3-2-0----|
G|-4/6-2----2-2-2-2-2-2--|
D|-----------------------|
A|-----------------------|
E|-----------------------|
       DM7
e|-----------------------|
B|----------2---3-2-0-2--|
G|-----2------2----------|
D|-----------------------|
A|-----------------------|
E|-----------------------|
       A
e|-----------------------|
B|-----------------------|
G|-----2----2---3-2-0-2--|
D|------------2----------|
A|-----------------------|
E|-----------------------|
       DM7
e|-----0-----------------|
B|-----2-----------------|
G|-----2-----------------|
D|-----0-----------------|
A|-----------------------|
E|-----------------------|


VERSE: A--DM7-- (just like the intro parts)

etc...

NITRAM
06-23-10
11:36 PM
Tap to rate this tab
 
# A B C D E F G H I J K L M N O P Q R S T U V W X Y Z