Song name
# A B C D E F G H I J K L M N O P Q R S T U V W X Y Z

The Avett Brothers - Bella Donna tab

Bella Donna by The Avett Brothers

This version is a simplified one that can be played on one guitar. Strum/pick the 
initial chord for a few bars and then play the melody.

Capo 3

  G
e|-3-----------------------------|
B|-0---0---0---1---0-------0-----|
G|-0-------------------2---------|
D|-0-------------------------2---|
A|-2-2---2---2---2---2---2---3---|
E|-3-3---3---3---3---3---3-------|

  C
e|-0---------------------------------|
B|-1---0---0---1---0-------0---------|
G|-0-------------------2-------------|
D|-2-2---2---2---2---2---2-----------|
A|-3-3---3---3---3---3---3---2-------|
E|-x-------------------------3-------|

Repeat.
G                                C
Baby, I asked you not to keep me waiting
                          G
I told you not to keep me waiting
                     C
Now the afternoon is fading on

G                           C
Donna, Bella Donna have you seen me
                         G
And have you ever really seen me
                       C
Like I want for you to see me now

G                                     C
Lonesome, like you were when you were sixteen
                             G
When maybe even if I weren't listening
                      C
Did I help when I was kissing you

G                          C
Donna, Bella Donna are you listening
                         G
And were you ever really listening
                       C   
Like I want for you to listen now
Tap to rate this tab
 
# A B C D E F G H I J K L M N O P Q R S T U V W X Y Z