The Avett Brothers - Souls Like The Wheels tab

-------------------------------------------------------------------------------
			     SONG NAME - Band Name
-------------------------------------------------------------------------------
Tabbed by: Connor M
Email:connormccleskey@gmail.com

Tuning: Open C capo 4
With fingerpicking on the open strings the entire time. the patterns easy enough that 
not even going to put it on the tab, it would only make it more confusing. So these are 
the fingered notes.


These are repeated in different orders throughout the entire song.
                                                                                         
            x3       x3             x3       x3
e|--------------------|------------------------------------------------------|
B|--------------------|-14------------13----------9----------4---------------|
G|---2-------5--7-----|-----13-------------11---------8----------2-----------|
D|--------------------|------------------------------------------------------|
A|--------------------|------------------------------------------------------|
E|---2-------5--7-----|------------------------------------------------------|
                     |Fingerpick open strings constantly

e|---3----0-------------------------7--0------1/3----0-----------------------|
B|------------2--0-----------------------------------------------------------|
G|---------------------------------------------------------------------------|
D|---------------------------------------------------------------------------|
A|---------------------------------------------------------------------------|
E|----------------------------------7----------------------------------------|

Constant fingerpicking of open strings
                  x3      x3        x3      x3
e|----------------7-------5---------1-------0--------------------------------|
B|---------------------------------------------------------------------------|
G|---------------------------------------------------------------------------|
D|---------------------------------------------------------------------------|
A|---------------------------------------------------------------------------|
E|----------------7-------6---------2-------0--------------------------------|

e|---------------------------------------------------------------------------|
B|---------------------------------------------------------------------------|
G|---------------------------------------------------------------------------|
D|---------------------------------------------------------------------------|
A|---------------5----2----0-------------------------------------------------|
E|--------------------------------2------4----0------------------------------|


And thats pretty much it
************************************

| /   slide up
| \   slide down
| h   hammer-on
| p   pull-off
| ~   vibrato
| +   harmonic
| x   Mute note
| b   Bend
| pb  Pre-bend
| br  Bend release
| pbr Pre-bend release
| brb Bend release bend

************************************
Tap to rate this tab
 
# A B C D E F G H I J K L M N O P Q R S T U V W X Y Z