Song name
# A B C D E F G H I J K L M N O P Q R S T U V W X Y Z

The Avett Brothers - Kind Of In Love tab

e--7-10-7---------7-----|
B---------10-8-10---8---|b
G-----------------------| x2
D-----------------------|
A-----------------------|
E-----------------------|

e-7-10-7---------7-7-7------7-------7p5---7-----8p7---7------|
B--------10-8-10-------8-10---10-8------8---8p5-----8----8b--|
G------------------------------------------------------------|
D------------------------------------------------------------|
A------------------------------------------------------------|
E------------------------------------------------------------|


(G)She's sweet as the (F)summertime
(G)strong as the (F)sunshine
(G)and I donít want to (F)know her
(C)I let myself down
Ėsame for all versesĖ

I'm cold as a winter's storm
soft as a grind stone
and I can't do a thing
to flag my life down

chorus:
(Bm)Why (C)do you (G)amaze me?
(Bm)Why (C)do you (G)amaze me?
(Bm)Why (C)do you (G)fool me into (Am)thinking that I'm (C)kind of in (Cm)love 
(D7)with (G)you?(F)(G)(F)Ö
Big brown eyes and curly hair
I wonder if she sees me stare
I canít say why Iíve fallen
Babe, please have mercy

Chorus

Ya sleep like a ball and chain
if I knew more than your first name
those eyes you got canít fool me
I know how this goes

We wrap ourselves in conversation
You tell lies and try my patience
Bite my tongue in frustration
Or you slap my face

on the last line of the last chorus:

Öfool me into (Am)thinking that I'm (C)kind of in (Cm)love (D7)with (C)yoooooouuuuuuououo(G)
Tap to rate this tab
 
# A B C D E F G H I J K L M N O P Q R S T U V W X Y Z