The Avett Brothers - Sanguine tab

The other vesion is lacking quite a bit so here is my version.  It is
mainly only going to be the one guitar part, but I will include the solo
and such as well.  Here we go

STANDARD TUNING (first track from The Gleam)
CAPO 3
intro
  Am   G          Am   G          Am   G          Am   G
e----------3---------------3---------------3---------------3-------3----|
B-1/3--0----------1/3--0----------1/3--0----------1/3--0----------------|
G-2/4--0-------0--2/4--0-------0--2/4--0-------0--2/4--0-------0--------|
D--------0---------------0---------------0---------------0-------0------|
A-0---------------0---------------0---------------0---------------------|
E------3-----3---------3-----3---------3-----3---------3-----3----------|
  G
e-------3---------------------------------------------------------------|
B-----------------------------------------------------------------------|
G---0-------0-----------------------------------------------------------|
D-----0-------0---------------------------------------------------------|
A-----------------------------------------------------------------------|
E-3-------3-------------------------------------------------------------|

Verse
 Em  D  C      G            C9
e-3--2--0----------3--------------------0-------0-----------------------|
B----3--1------0----------------3---------------------------------------|
G--------------0-------0----0-------0-------0-------0-------------------|
D-2--0-----------0-------0----2-------2-------2-------2-----------------|
A-------3-------------------3-----3-------3-------3---------------------|
E--------------3-----3--------------------------------------------------|
Make me san....guine

Em  D  C      G            C9
e-3--2--0----------3--------------------0-------0-----------------------|
B----3--1------0----------------3---------------------------------------|
G--------------0-------0----0-------0-------0-------0-------------------|
D-2--0-----------0-------0----2-------2-------2-------2-----------------|
A-------3-------------------3-----3-------3-------3---------------------|
E--------------3-----3--------------------------------------------------|
Help me gen.....uinely....

  Am             C                         Am   G
e-----0---0------------0----------------------------3-------------------|
B----------------1------------------0------1/3--0-----------------------|
G-2-----------2----0-------0---0--------0--2/4--0-------0---------------|
D---2-------2--------2-------2------0-------------0-------0-------------|
A-0-----0--------3-------3-----------------0----------------------------|
E---------------------------------3---3---------3-----3-----------------|
  Kill the doubt that strangles my self worth

  Am             C                         Am   G
e-----0---0------------0----------------------------3-------------------|
B----------------1------------------0------1/3--0-----------------------|
G-2-----------2----0-------0---0--------0--2/4--0-------0---------------|
D---2-------2--------2-------2------0-------------0-------0-------------|
A-0-----0--------3-------3-----------------0----------------------------|
E---------------------------------3---3---------3-----3-----------------|
 To paint the picture that I swore I heard

Below we will shortly have two guitars tabbed.
Guitar 1 (fingerpicked)
  Em       D        C                G
e-3-----3--2-----2--0-----3-------0--------------------3----------------|
B-----0--------3--------1-------1------0------1/3--0--------------------|
G---0--------2--------0-------0------------0--2/4--0-------0------------|
D-2--------0----------------2----------0-------------0-------0----------|
A-------------------3-------------------------0-------------------------|
E------------------------------------3---3---------3-----3--------------|

Guitar 2 (flatpicked and over the above tab)
e-3-----3-2-----2-0-----3-0---0--3-5/7--10-8-7--------------------------|
B---0-------3-------1---1---1----3------12------------------------------|
G-----0-------2-------0-0--------0------0-------------------------------|
D--------------------------------2------0-------------------------------|
A--------------------------------3--------------------------------------|
E-----------------------------------------------------------------------|

Guitar 1 (fingerpicked; they could be lightly strummed as well)
  Am               C                G
e-------0-------0--------0-------0--------------------3-------3-------3-|
B---1----------------1----------------0------1/3--0---------------------|
G-2---------2------0---------0------------0--2/4--0-------0-------0-----|
D-----2-------2--------2-------2------0-------------0-------0-------0---|
A-0-------0--------3-------3-----------------0--------------------------|
E-----------------------------------3---3---------3-----3-------3-------|

Guitar 2 (flatpicked)
e-----------------------------------------------------------------------|
B-8/10~~~~---------5/8~~~~-----------11b--------------------------------|
G-----------------------------------------------------------------------|
D-----------------------------------------------------------------------|
A-----------------------------------------------------------------------|
E-----------------------------------------------------------------------|

Em  D  C      G            C9
e-3--2--0----------3------------3-------0-------0-----------------------|
B----3--1------0--------------------------------------------------------|
G--------------0-------0----0-------0-------0-------0-------------------|
D-2--0-----------0-------0----2-------2-------2-------2-----------------|
A-------3-------------------3-----3-------3-------3---------------------|
E--------------3-----3--------------------------------------------------|
 Spiritless   and mean...

Em  D  C      G            C9
e-3--2--0----------3--------------------3-------3-----------------------|
B----3--1------0----------------3---------------------------------------|
G--------------0-------0----0-------0-------0-------0-------------------|
D-2--0-----------0-------0----2-------2-------2-------2-----------------|
A-------3-------------------3-----3-------3-------3---------------------|
E--------------3-----3--------------------------------------------------|
The ghost that comes between me

  Am             C                         Am   G
e-----0---0------------0----------------------------3-------------------|
B----------------1------------------0------1/3--0-----------------------|
G-2-----------2----0-------0---0--------0--2/4--0-------0---------------|
D---2-------2--------2-------2------0-------------0-------0-------------|
A-0-----0--------3-------3-----------------0----------------------------|
E---------------------------------3---3---------3-----3-----------------|
  I will keep my wits about myself.

  Am             C                         Am   G
e-----0---0------------0----------------------------3-------------------|
B----------------1------------------0------1/3--0-----------------------|
G-2-----------2----0-------0---0--------0--2/4--0-------0---------------|
D---2-------2--------2-------2------0-------------0-------0-------------|
A-0-----0--------3-------3-----------------0----------------------------|
E---------------------------------3---3---------3-----3-----------------|
Disregard directions sent from hell.

This is the little breakdown type part.

e-3--5--3--7-----------------------------------3-------3----------------|
B-----------------3------------0------1/3--0----------------------------|
G-------------0-------0---0--------0--2/4--0-------0--------------------|
D-2--4--2--5----2-------2------0-------------0-------0------------------|
A-------------3-----3-----------------0---------------------------------|
E----------------------------3---3---------3-----3----------------------|

Okay, I am getting pretty damn sick of tabbing so I am going to tab
out the solo and list rest of the lyrics under chords. You can get it.

e-----------------------------------------------------------------------|
B-----------------------------------------------------------------------|
G-0--2--0--4--7--7p5--5--5--5/4--2--0--2/4--7/9--0--2b--0--4--4/7--7/5--|
D-----------------------------------------------------------------------|
A-----------------------------------------------------------------------|
E-----------------------------------------------------------------------|

e-----------------------------------------------------------------------|
B-------------------------------3---------------------------------------|
G-5--5--5p4--2--0--2/4--0--2/4-----4/2--0----------0-------0--2---------|
D------------------------------------------0--0h2-----0h2---------------|
A-----------------------------------------------------------------------|
E-----------------------------------------------------------------------|

e------------------------------3-------------3----------------3---------|
B------------------------------3----------3-----7b--5b--3---------------|
G-2b--0------------------------0--0--2/4-------------------4------------|
D--------2--0h2--0-------0-----0----------------------------------------|
A-------------------0h2--------2----------------------------------------|
E---------------------------3--3----------------------------------------|

e---------7~~~----------------------------------------------------------|
B------8----------------------------------------------------------------|
G-4/7-------------------------------------------------------------------|
D-----------------------------------------------------------------------|
A-----------------------------------------------------------------------|
E-----------------------------------------------------------------------|

When it brings the gleam

Longer lasting than me

Oh my love but we are bound to die.

My heart is broke but you wont hear me cry

Oh my love but we are bound to die.

My heart is broke but you won't see me

Sorry I got lazy.  Tabbing can take a while and really be a pain in
the ass.  Anyways, you should be able to figure it out.  I gave a
pretty good shell of the song.  Enjoy
Tap to rate this tab
 
# A B C D E F G H I J K L M N O P Q R S T U V W X Y Z