Song name
# A B C D E F G H I J K L M N O P Q R S T U V W X Y Z

The Avett Brothers - D Bag Rag tab

This song is entirely instrumental so I'll try to explain the timing via time
on the track in the album version off of "A Carolina Jubilee" (2003)

The song has piano, guitar and bass. I'll post the chords and riffs on
guitar so you can learn all 3! KEEP IN MIND THIS IS AN INSTRUMENTAL!!!


The D Bag Rag - Avett Brothers
Tabbed by: Macheeoo
Email: macheeoo@yahoo.com
Tuning: Standard


Here is the order by which each riff/chords are played with the timing -

Chords 1      0:00
Chords 2      0:15 (Riff 1 Low under piano)
Chords 1      0:22
Chords 2      0:36
Chords 3      0:43
Chords 2      0:58
Riff 2        1:04
Riff 3        1:19
Riff 4        1:25
Riff 3        1:40
Chords 1      1:48
Chords 2      2:01
End



Chords 1:
F  C  F  C  Am  F  Am  F

Chords 2:
C  G  F  G - Am  G  C

Chords 3:
C  F  C  F  C  F  C  F


Riff 1 Low                         C
e|---------------------------------0-----------------------------------------|
B|-----------------------1---------1-----------------------------------------|
G|-------------------------2-0-----0-----------------------------------------|
D|--2-----2--0-----0-----------2---2-----------------------------------------|
A|----3-2------2-3---3-----------3-3-----------------------------------------|
E|---------------------------------------------------------------------------|

Riff 2 (Really fast picking)
e|---------------------------------------------------------------------------|
B|-----------------------------------5~-------5--------3-5-3---3-5-3---------|
G|--5-7-5---5-7-5---5-7-5---5-7-5---------4-5---5-4----------5-------5-------|
D|--------7-------7-------7-------7-----7-----------7-------------------etc--|
A|---------------------------------------------------------------------------|
E|---------------------------------------------------------------------------|

Riff 3
e|--------------------------------------12----12-/-15-15-12------------------|
B|-------------------10----10--13-10-13----13--------------15-13p13-10-------|
G|--9----9--12-9-12-----12--------------------------------------------12-9---|
D|----10-------------------------------------------------------------------10|
A|---------------------------------------------------------------------------|
E|---------------------------------------------------------------------------|

Riff 4 High
e|----------------------------------------|
B|--------8------------------8------------|
G|----7-9---9-7h9p7------7-9---9~-7~------|
D|--9--------------10--9------------9-----|
A|----------------------------------------|
E|----------------------------------------| x2
Tap to rate this tab
# A B C D E F G H I J K L M N O P Q R S T U V W X Y Z