Song name
# A B C D E F G H I J K L M N O P Q R S T U V W X Y Z

The Avett Brothers - January Wedding tab

Tabbed by: Dave Stewart


Capo II

e|---3----------------3--------------3------------------------------------------|
B|---0----------------0--------------0------------------------------------------|
G|---0----------------0----------0---0------------------------------------------|
D|---0---0h2/7p5------0----0h2/4-----0----------0-----xx------------------------|
A|---2----------------2--------------2-----0h1/2------xx------------------------|
E|-3-3--------------3-3------------3-3-------------3--xx-----0-2-3--------------|


Banjo (arranged for guitar, still capo II)

e|-------------------------------------------------5-8-7~--------------------|
B|-------------------------------------------5-7-8---------------------------|
G|--------0------------------------------------------------------------------|
D|--0h2/4--------------------------------------------------------------------|
A|---------------------------------------------------------------------------|
E|---------------------------------------------------------------------------|


For the rest of the song you can just follow the Chords tab that is already up, after 
the chorus it pretty much repeats the intro, and during the verse they will often do this 
for the G chord
e|--------3-------------------------------------------------------------------|
B|--------0-------------------------------------------------------------------|
G|--------0-------------------------------------------------------------------|
D|--------0-------------------------------------------------------------------|
A|--------2-------------------------------------------------------------------|
E|--0-2-3-3-------------------------------------------------------------------|

And they will do something like this during the C chord and then do the run above to go 
back to the G chord
e|---------------------------------------------------------------------------|
B|--------------1------------------------------------------------------------|
G|---0----0-0---0------------------------------------------------------------|
D|---0h2--------2------------------------------------------------------------|
A|--3------3--3-3------------------------------------------------------------|
E|---------------------------------------------------------------------------|
Tap to rate this tab
# A B C D E F G H I J K L M N O P Q R S T U V W X Y Z