Song name
# A B C D E F G H I J K L M N O P Q R S T U V W X Y Z

The Avett Brothers - Pretty Girl At The Airport chords

Highlighted       Show chord diagrams
------------------------------------------------------------------------------
             PRETTY GIRL AT THE AIRPORT - The Avett Brothers
-------------------------------------------------------------------------------
Tabbed by: Macheeoo
Email: macheeoo@yahoo.com

Tuning: (Standard) CAPO II

This is what the picking pattern for the chords will look like -
    G     G/F#  G/E    C/B   C    Am
e|---------------------------------------------------------------------------|
B|------0-----0-----0-----0----1-----1---------------------------------------|
G|-----0-----0-----0-----0----0-----2----------------------------------------|
D|----0-----0-----0-----0----2-----2-----------------------------------------|
A|---------------------2----3-----0------------------------------------------|
E|--3-----2-----0------------------------------------------------------------|



Intro:
G  G/F#  G/E  C/B  C              \
C  C/B   Am   G    C  C/B          \    Play this intro
G  G/F#  G/E  C/B  C               /    over 4x
C  C/B   Am   G    C  C/B  Am     /


G        G/F#   G/E      C/B        C
Wish me luck I know you think I'll need it
    C       C/B     Am       G       C    C/B
For all the hardest roads we have to walk alone
   G         G/F#     G/E     C/B      C
And you don't have to tell me that you love me
    C       C/B       Am     G    C
For all the words I've never understood
  C/B     Am
I know, I know

   G          G/F#       G/E     C/B    C
The wind that blows from here to California
C     C/B      Am      G       C      C/B
Never stops to turn and wonder why it goes
    G        G/F#     G/E      C/B        C   
And you don't have to tell me when you're leaving
    C       C/B       Am     G    C
For all the plans I've never understood
  C/B     Am
I know, I know
C     Cm            G
Leave now while you can
    Am  C/B  C
I'm not your man
  C/B     Am
I know, I know

  G         G/F#       G/E         C/B        C
To have your things and wait there for a plane ride
C      C/B      Am      G         C      C/B
No one there to sit and hold your hand in flight
   G     G/F#  G/E      C/B     C
But everyone I know out here is lonely
C    C/B       Am       G      C      C/B     Am
Even those that have someone to lie beside at night

C     Cm          G
Leave me with the dawn
     Am C/B C
It's almost gone
  C/B     Am
I know, I know
C     Cm            G
Leave now while you can
   Am   C/B  C
I'm not your man
  C/B     Am
I know, I know
Tap to rate this tab
 
# A B C D E F G H I J K L M N O P Q R S T U V W X Y Z