Song name
# A B C D E F G H I J K L M N O P Q R S T U V W X Y Z

The Avett Brothers - Souls Like The Wheels tab

Souls Like The Wheels
The Avett Brothers

Tabbed by: Jason Eisenmenger
Email: jasoneisen@gmail.com

CGCGCE
Capo 4

Song timeline:

A1 B1x2 C1x2 B1x2 C1x2 B1x2 C1x2 C2 B2 B1x2 C1x2 C2x2 D1 D2 D1 D3 D1 D3 D1 A1 B1x2 C1x2 C2x2

{A1} Intro

--------------------------------------0-----------------------0------------------|
-----0------------------------------------10-------9-----------------9-----------|
--2----------5-------7------2/9------------------------7-------------------------|
-------0-------------------------0------------0-----------0-------------0--------|
---------------------------------------------------------------------------------|
--2----------5-------7--------0---------0----------0--------------0--------------|



-------------0-------------------------------0------------------------0----------|
--5------------------5-----------4-------------------4---3/10-------------10-----|
-----4-------------------------------2-------------------------9-----------------|
--------0-----------------0-------------0--------------------------0----------0--|
---------------------------------------------------------------------------------|
--0-------------0----------------0---------------0----------0-----------0--------|



------------0---------------------------0------------------0---------------------|
-9-----------------9---------5----------------5-----------4----------------------|
-----7--------------------------4------------------------2-----------------------|
--------0-------------0------------0--------------0------------------------------|
---------------------------------------------------------------------------------|
-0--------------0------------0-------------0-------------------------------------|


{B1} Verse


----3---------0-------------------------------------------------------------|
-----------------------2-----------0----------------0-----------------------|
----------------------------------------0h2----------------2----------------|
---------0-------------------0-----------------0----------------------------|
----------------------------------------0h2-------------2-------------------|
----0-------------0---------------------------------------------------------|



---5--------------------------1/3----0----------------------------------------|
-----------5----------------------------2-----0-------------------------------|
--------------------0----------------0-----------0----------------------------|
-----------0-----------0------------------------------------------------------|
------------------------------0------------0----------------------------------|
---5-------------5------------------------------------------------------------|


{B2} Variation

----3---------0-------------------------------------------------------------|
-----------------------2-----------0----------------0-----------------------|
----------------------------------------0h2----------------2----------------|
---------0-------------------0-----------------0----------------------------|
----------------------------------------0h2-------------2-------------------|
----0-------------0---------------------------------------------------------|



---5----------------------------7---------------------------------------------|
-----------5--------------------7---------------------------------------------|
--------------------0-----------7---------------------------------------------|
-----------0-----------0--------7---------------------------------------------|
------------------------------------------------------------------------------|
---5-------------5------------------------------------------------------------|


{C1}

----5-----------------3------------------1---------------------------------------|
----------5-----------------4------------------2---------------------------------|
---------------0------------------0------------------0---------------------------|
--------0---------0-------0----------0------0-----------0------0------0----------|
---------------------------------------------------------------------------------|
----5--------5--------4--------4---------2---------2--------2------2-------------|


{C2} Let me go...


---------------------------------------------------|
-----------0----------0---------0----------0-------|
---------------------------------------------------|
---------0----------0---------0----------0---------|
---------------4----------2-----------0------------|
----0----------------------------------------------|



-------------------------------------------------|
-------0-----------0-----------------------------|
-------------------------------------------------|
-----0-----------0---------0------0-----0------0-|
-------------------------------------------------|
-2----------/5----------0------0------0------0---|


{D1}


-------------3-----------------0-----------------|
---2/4----------------------2--------2--0--------|
-------------------0-----------------------0-----|
---------0-------------0----------0----------0---|
----------------------------3-----------3--------|
---0-------------0-------------------------------|

{D2}

-----------------------------------------------|
-----------------------------------------------|
-----0-----------------------0-----------------|
--4-------4----0----0-----4-------4----0----0--|
-----------------------------------------------|
--5-----5----5----5-------5-----5----5----5----|

{D3}

-----------------------------------------------------------------------|
--------------------------------------------0---4p0----------------0---|
-------0--------------------------0---0h4-------------4---p0---h4------|
---0h4-----4----0----0-------0h4---------------------------------------|
-----------------------------------------------------------------------|
---5-----5----5----5---------5--------5---------5---------5------------|
Tap to rate this tab
# A B C D E F G H I J K L M N O P Q R S T U V W X Y Z