Song name
# A B C D E F G H I J K L M N O P Q R S T U V W X Y Z

The Avett Brothers - Ten Thousand Words tab

-------------------------------------------------------------------------------
			     TEN THOUSAND WORDS - The Avett Brothers
-------------------------------------------------------------------------------
Tabbed by: awilson1087
Email: adam.wilson10@okstate.edu

Tuning: Standard

e|------2------------0------------1----1-----1----1----|
B|-------3---3--------1---1--------0----------0--------|
G|----2----2------------0-------0----0-----0----0------|
D|--0--------------2------------0----------0-----------|
A|---------------3-------------------------------------|
E|----------------------------3----------3-------------|

e|------2---------------------------1---1----1---1----|
B|-------3---3-------1---------------0---0----0-------|
G|----2----2---------------0h2-0------0--------0------|
D|--0--------------2---0h2-----0----------------------|
A|---------------3------------------------------------|
E|-----------------------------3--3-------3-----------|
Tap to rate this tab
 
# A B C D E F G H I J K L M N O P Q R S T U V W X Y Z