Song name
# A B C D E F G H I J K L M N O P Q R S T U V W X Y Z

The Avett Brothers - Offering chords

Highlighted       Show chord diagrams
Offering The Avett Brothers

No capo

Intro
G C G Em D7 G (1x instrumental, 1x with "Hmmm")


G        C
Babe Iím lost
                           G
cause I donít know what to say
         Em         D7
Mmmmm, I love you
                        G
Wanna make you my wife someday
(G)         C
Donít wanna steal you
                   G
of a young womanís light
          Em        D7
To me its perfect
                  G
Just wanna do you right
(G)        C
Iíve known others
                      G
and I've loved others too
                                 Em                D7
but I loved them cause they were stepping stones
                  G
on a staircase to you


Bridge
(G) C G Em D7 G (with "Hmmm")


(G)             C
Sometimes I act foolish
                     G
I donít know what to do
                       Em         D7
Please babe try not to judge me
                  G
for my offering is true
(G)            C
And I dream of children
                G
we can call our own
                           Em           D7
watch em run around in the front yard
                            G
from the front porch of our home----


Bridge
G C G Em D7 G


Em D7
To me it's perfect
G
Just wanna do you right

Outro
(G) C G Em D7 G
(G) C G Em D7 G



Tabulature
e|------------0-000---0-000---0-000-----00---------3-333---3-333------3-333---33---00----0-000--
B|----0---0---1-111---1-111---1-111-----11---------0-000---0-000------0-000---00---00----0-000--
G|----0---0---0-000---0-000---0-000-----00---------0-000---0-000------0-000---00---00----0-000--
D|----0---0---2-222---2-222---2-222-----22---------0-000---0-000------0-000---00---00----2-222--
A|------2---3-------3-------3-------2h3----2--0------------------------------------------2-222--
E|--3--------------------------------------------3-------3-------2--3-------3----2-----0--------


e|----0-0-----2-222---22---------3-333---3333------3-333----:|
B|----0-0-----1-111---11---------0-000---0000------0-000----:|
G|----0-0-----2-222---22---------0-000---0000------0-000----:|
D|----2-2---0-------0------------0-000---0000------0-000----:|
A|----2-22h3------------------------------------------------:|
E|--0--------------------0--2--3-------3------2--3----------:|



Didn't do this, not sure who did. But I thought it was a better and easier version.
Tap to rate this tab
# A B C D E F G H I J K L M N O P Q R S T U V W X Y Z