Song name
# A B C D E F G H I J K L M N O P Q R S T U V W X Y Z

The Avett Brothers - Life tab

-----------------------------------------------------------------------------
                         Life - The Avett Brothers
-----------------------------------------------------------------------------
Tabbed by AaronSox


Capo IV

INTRO

(Guitar 1 - Stereo Left)
    G            D             Em              C
e|--------------------5----------------------------------------|
B|---------0----------3--3--------------0----------------1-----|
G|------0------0----2--------0--------------0----------------0-|
D|-----------0---0---------0--------2----0h2------0-h-2----2---|
A|--------------------------------2------------3---------------|
E|-3---------------------------0-------------------------------|

    G            D             Em              C              C7
e|------3-------------5--------------------------------------------------------|
B|---------0--------3----3--------------0------------1-------0----------0------|
G|-------------0-------------0--------------0--0---------0----------0-------0--|
D|----0------0---0---------0--------2-----2----2--2--------2------2-------2----|
A|--------------------------------2------------3---------------3---------------|
E|-3---------------------------0-----------------------------------------------|



(Guitar 2 - Stereo Right)
                 D             Em              C
e|-------------------------------------------------------------|
B|---------0----------3-----------------0----------------1-----|
G|-0-----------0----2---------------0-------0--------0-------0-|
D|-----------0---0----------------2-------2-------2--------2---|
A|---------------------------------------------3---------------|
E|-----------------------------0-------------------------------|


   G             D             Em              C               C
e|------3---------------------------------------------------------------------|
B|---------0----------3------0----------0------------1-------1------1-------1-|
G|-------------0----2----2-2----------------0------------0--------------0-----|
D|----0------0---0------------------2-----2-------2--------2------2-------2---|
A|--------------------------------2------------3---------------3--------------|
E|-3---------------------------0----------------------------------------------|


VERSE

   G             D             Em              C         repeat  C
e|--------------------2----------------------------------------|--------------|
B|*-----0------0---------3--------------0---------------1-----*|----1-----1---|
G|---------0--------2--------2--------------0-------0-------0--|------0-----0-|
D|*---0------0---0---------0--------2-----2-------2-------2---*|-----2-----2--|
A|--------------------------------2------------3---------------|-3------------|
E|-3---------------------------0-------------------------------|--------------|
Tap to rate this tab
 
# A B C D E F G H I J K L M N O P Q R S T U V W X Y Z