Song name
# A B C D E F G H I J K L M N O P Q R S T U V W X Y Z

The Avett Brothers - Apart From Me tab

This is the tab for the lead guitar, not the chords, in Apart From Me by The Avett 
Brothers off their new album "Magpie and the Dandelion".  Took me a pretty good amount of 
time to get it tabbed out by ear, so I think it should be very accurate.

Standard tuning, Capo 4th fret...

Enjoy!

Intro:

-----------------------------------------------------|
-0-0-0-0-0--3-3/7--5\3-3---3--3----------------------|
--------------------------4--4--4--2-0--2/4----------|
----------------------------------------------2--2---|
-----------------------------------------------------|
-----------------------------------------------------|

------------------------------------------------------|
------------------------------------------------------|
------------------------------------------------------|
-4-4-4-4-4--4\0--0----5-5-5-5--5\2--2----0----0-------|
---------------------------------------------2--------|
--------------------------------------------------3---|



(1:41)

---------------------------------------------------------------|
-0-0-0-0-0--3-3/7--5\3-3--3------------------------------1-----|
-----------------------------4---2-0-2--2/4-----------0--------|
----------------------------------------------2--2-------------|
---------------------------------------------------------------|
---------------------------------------------------------------|


----------------------------------------------------------|
----------------------------------------------------------|
----------------------------------------------------------|
-0-2-0--2/4--0-0--4/5--5-5/7\2--2-2----0---0--------------|
------------------------------------------2----2-0--------|
----------------------------------------------------3-----|



"Goodbye and hello..."  (2:08)

-----------------------------|
-1p0----0--------------------|
------2----2p0-----0---------|
-----------------2-----------|
-----------------------------|
----------------------3------|



"Where I'm going..."  (2:35)

--------------0----------------|
------------3---3--------------|
------0-2------------0---------|
-2/4---------------4-----------|
-------------------------------|
------------------------3------|



(2:50)

---------3-------3-------3--------------------7-------7-------7-----------|
-----3-------3-------3-------3------------8-------8-------8-------8-------|
-2/4---4-------4-------4-------4------4/9---9-------9-------9-------9-----|
--------------------------------------------------------------------------|
--------------------------------------------------------------------------|
--------------------------------------------------------------------------|




"Gold, it glittered in the night..."  (3:16)

-----------------------------------|
-----------------------------------|
-----------------------------------|
-0--2/4--2p0-----0-----------------|
---------------2-------------------|
--------------------3--------------|




"The artist died..."  (3:31) [harmonics]

-----------------------------------|
------------12---------------------|
-------12-------12-----------------|
--12-------------------------------|
-----------------------------------|
-----------------------------------|




"Fluorescent lights of day..."  (3:52)

-------------------------------------|
-------------------------------------|
-------------------------------------|
-0--2/4--4-4--2p0-----0--------------|
--------------------2----------------|
-------------------------3-----------|



(4:28)

-----------------------------3---------------------------------------------|
-0-0-0-0-0--3-3-3/7--5\3------4-----------3/5--3-1--1p0----0-----3---------|
---------------------------4-----4\2--0-2-----------------2---2-0----------|
---------------------------------------------------------------------------|
---------------------------------------------------------------------------|
---------------------------------------------------------------------------|



(4:36)

-----------------3-----------------------0-------------------------|
-3/7--5\3-3----3--3----------3/5--3\1--1---0h1p0----0--------------|
-------------4------4--2-0-2-----------------------2---2-0---------|
-------------------------------------------------------------------|
-------------------------------------------------------------------|
-------------------------------------------------------------------|



(4:43)

----------------3---------------------------0--------------------------------|
-3/7--5\3-3-------3---------1--3/5--3\1--1-----1p0-----0---------3-----------|
--------------4------4\2--0--------------------------2----2--0--4------------|
-----------------------------------------------------------------------------|
-----------------------------------------------------------------------------|
-----------------------------------------------------------------------------|



(4:49)

----------------3---------------------------------------------------|
-3/7--5\3-3-------3------------3/5--3\1--1--1p0----0----------------|
--------------4------4\2--0-2--------------------2----2--0----------|
-------------------------------------------------------------2------|
--------------------------------------------------------------------|
----------------------------------------------------------------3---|

End on G.

That's the whole song! Happy playing!
Tap to rate this tab
# A B C D E F G H I J K L M N O P Q R S T U V W X Y Z