Song name
# A B C D E F G H I J K L M N O P Q R S T U V W X Y Z

The Avett Brothers - Ill Come Running Back To You chords

Highlighted       Show chord diagrams
I'll Come Running Back To You (Sam Cooke cover)


(Use these runs during a quite 1st verse)

        G        B7        C         G
E||-----3--------2---------0---------3---------------------------------|
B||-----0--------0---------1---------0---------------------------------|
G||-----0--------2---------0---------0---------------------------------|
D||-----0--------1---------2---------0---------------------------------|
A||-----2----0-1-2-----0-2-3---------2---------------------------------|
E||-0-2-3--------X---------X-----0-2-3---------------------------------|


        G        B7        C         D          G
E||-----3--------2---------0---------3----------3----------------------|
B||-----0--------0---------1---------2----------0----------------------|
G||-----0--------2---------0---------3----------0----------------------|
D||-----0--------1---------2---------0----------0----------------------|
A||-----2----0-1-2-----0-2-3---------0----------2----------------------|
E||-0-2-3--------X---------X---------0----------3----------------------|




G
Folks say that you've
B7
Found someone new
C                          G
To do the things I used to do for you
G
Just call my name
B7    
I'm not ashamed
C         D               G
I'll come running back to you


(fuller strumming from here on)

G
Can't sleep at night
B7
I can't eat a bite
C                           G
When you were mine I didn't treat you right
G
Just call my name
        B7                                
I know, I'm not ashamed
C          D              G
I'll come running back to you

G                            G7
Just like a king, I've lost everything
C9                         C9 B7 A7
I sit all alone on my throne
A7
I've got my pride but deep down inside
D
I'm yours, yours alone, whoa

G
I try to forget
B7
Have no regrets
C                              G
This love of ours could always start anew
G
Just call my name
      B7
Whoa, I'm not ashamed
C          D              G
I'll come running back to you

G                            G7
Just like a king, I've lost everything
C9                         C9 B7 A7
I sit all alone on my throne
A7
I've got my pride but deep down inside
D
I'm yours, yours alone, whoa

G
I try to forget
B7
Have no regrets
C                              G
This love of ours could always start anew
G
Just call my name
      B7
Whoa, I'm not ashamed
C          D              G
I'll come running back to you
Tap to rate this tab
# A B C D E F G H I J K L M N O P Q R S T U V W X Y Z