Song name
# A B C D E F G H I J K L M N O P Q R S T U V W X Y Z

The B-52`s - Rock Lobster tab

CAPO on FRET 3

There's two guitars playing this, but challenge yourself a bit, play the chords as well. 

A B-52s classic...

This is Rock Lobster!


        Am     C   

e|------0--------0------------------0---0---(0)------------------------------|
B|------1--------1------------------3---3---(3)----------play this-----------|
G|------2--------0------------------1---1---(1)-------------a few times------|
D|------2--------2-----3--2--3--2---0---0---(0)------------------------------|
A|--0---0----3---3-----------------------------------------------------------|
E|------0--------0-----------------------------------------------------------|

       Am   Am

e|--0---0---0-------x-----------(0)------------0-----------------------------|
B|------1---1---4---1---------1--1--4--1---4---1--------------a few times----|
G|------2---2-------2----x2------2-----2-------2-----------------------------|
D|------2---2-------2------------2-----2-------2-----------------------------|
A|------0---0-------0--------------------------0-----------------------------|
E|---------------------------------------------0-----------------------------|

Tap to rate this tab
# A B C D E F G H I J K L M N O P Q R S T U V W X Y Z